Tiamat: The Ar

Tune down 1 step    

INTRO
--------
--------
--------
--------
|--6-7----6---------
-7--9---

MAIN RIFF
-----------------------------------------
-----------------------------------------
-----------------------------------------
|-2--------2-2--2--------2-2-------------------------
|-2--------2-2--2--------2-2--------4-5----4---------
|-0--------0-0--0--------0-0------------------5--7---
         PM---|        PM---|

-----------------------------------------
-----------------------------------------
-----------------------------------------
|-4--------4-4--4--------4-4-------------------------
|-4--------4-4--4--------4-4--------6-7----6---------
|-2--------2-2--2--------2-2------------------7--9---
         PM---|        PM---|



Текст, аккорды и табулатура для песни "The Ar", исполняет "Tiamat".
Используемые в песне аккорды можно найти в разделе Как брать аккорды. Аккорды для шестиструнной гитары. Другие песни можно найти на нашем сайте, воспользовавшись алфавитным указателем вверху страницы.


 
Ошибка в тексте? Выделите ошибку и нажмите Ctrl+Enter