Riff 1:
es----------0-----------------------|---------0-------------0-1-0-----||
b---------0---0---------------------|-------0---0---------3-------3---||
fis-----0-------0---------------0---|-----0-------0-----2-----------2-||
cis---2-----------2-----0h2-2h3---0-|---2-----------2-0---------------||
as------------------2h3-----------------------------------||
Es--0-------------------------------|-0-------------------------------||


Riff 2:                             2x
es----------------------------------||
b-------4-------4-------4-------4---||
fis---5---5---5---5---5---5---5---5-||
cis---------------------------------||
as--3-------2-------1-------0-------||
Es----------------------------------||

                                                             2x caly Riff 2
es----------1-----1-----------------|---------0-----0-----0-----------||
b-----------1-1---1---1-----1-------|-------3---3-----3-----3-----0---||
fis-------2-----2-------2-----2-----|-----0-------0-----0-----2h3---0-||
cis-----3---------------------------|---0-----------------------------||
as----3---------------------------------------------------||
Es--1---------------------------1-0-|-3-------------------------------||
                                                     tu koniec Riff 2 ^^

Riff 3: (Refren)
es--------0-----------1-----1-------|-------0-----------1-----1-------||
b-----------0-----------2-----2-----|---------0-----------1-----1-----||
fis-----------0-----3-----3-----3---0-----------2-----2---||
cis-----2---------3---------------3-------3-------------3-||
as----2---------1-------------------|---2-----------3-----------------||
Es--0-------------------------------|-0-----------1-------------------||



Teraz 1-sza gitara gra 2 x Riff 1, a druga to
es--------------------------------------------------------|
b---------------------------------------------------------|
fis-----------------------2h4/5-7-5-|-4~--4/54~~---------------------|
cis-2-2~------------2-4/5---------------------------------|
as--------------------------------------------------------|
Es--------------------------------------------------------|

es--------------------------------------------------------|
b---------------------------7/8-8-9-|-87-7/87~~-------3h5-65-5p3-0-|
fis-----------------2h4/5/7-------------------------------|
cis-------------------------------------------------------|
as--------------------------------------------------------|
Es--------------------------------------------------------|


1-sza gitara zaczyna grac Riff 2, a druga konczy solowe granie w
pierwszym takcie Riff 2 tym
es----------------------------------|
b-----------------------------------|
fis-5------4------3------2------|
cis---------------------------------|
as----------------------------------|
Es----------------------------------|

Potem graja razem reszte Riff 2

Potem Riff 3

Koniec:
es------------0---------------------|
b-----------0-----------------------|
fis-------0-------------------------|
cis-----2---------------------------|
as----2-----------------------------|
Es--0-------------------------------|


Текст, аккорды и табулатура для песни "Southernmost Voyage", исполняет "Tiamat".
Используемые в песне аккорды можно найти в разделе Как брать аккорды. Аккорды для шестиструнной гитары. Другие песни можно найти на нашем сайте, воспользовавшись алфавитным указателем вверху страницы.


 
Ошибка в тексте? Выделите ошибку и нажмите Ctrl+Enter