Wstep
es----0---0-7---0-7---0---0-7---0-7-|---------0---------------0-------|
b-------8-----8---------8-----8-----|-----0-3---0-2-3-----0-3---0-----|
fis-0---------------0---------------|---0---------------0---------0---|
cis---------------------------------|-2---------------2-------------2-|
as--------------------------------------------------------|
Es--------------------------------------------------------|

es--------1-3-----3-------1-3-------|-------0-2-----2-------0-2-------|
b-------1-----1---------1-----1-----|-----0-----0---------0-----0-----|
fis-------------------------------------------------------|
cis---3---------3-----3---------3---|---2---------2-----2---------2---|
as--3---------------3-------------3-|-2---------------2-------------2-|
Es--------------------------------------------------------|

es------------------0-------------------------------------|
b----------------0-------------5--8-|--7--12--8--7--------------------|
fis-----------0-------------4-----------------------------|
cis--------2----------------------------------------------|
as------2-------------------------------------------------|
Es--0-------------------0---------------------------------|

Teraz tempo 1,5 raza szybsze
Riff 1
(1 gitara)
es----------------------------------||
b-----------------------------------||
fis-------------54-----2---4/5---4-||
cis-----4---5---32-----0---2/3---2-||
as--2---2---3-------2-----------2---||
Es--0---------------0---------------||
(2 gitara)
es----------------------------------||
b---------------6-5---------6-5---5-||
fis---------------------2-------4---||
cis-----4---5-----------0-----------||
as--2---2---3-------2---------------||
Es--0---------------0---------------||


Riff 2
(1 git)
es-------------------------------||
b-------5----------5-------------||
fis----------4-----------4-----5-||
cis-2-2--------*-2---------5-4---||
as-------*-2---------*-2---------||
Es-------------------------------||

(2 git)
es-------------------------------||
b-------5----------5-------------||
fis----------4-------------------||
cis-2-2--------*-2-------4-----5-||
as-------*-2---------*-2-2-5-4-3-||
Es-------------------------3-2---||


Riff 3
es--------------------------------------------------------|
b---------------------------------------------------------|
fis-------------------------------------------------------|
cis-4---4-4-4---4-4-4---4-4-4---4---|-5---5-5-5---5-5-5---5-5-5---5---|
as--2---2-2-2---2-2-2---2-2-2---2---|-3---3-3-3---3-3-3---3-3-3---3---|
Es--------------------------------------------------------|
        ^ ^     ^ ^     ^ ^               ^ ^     ^ ^     ^ ^


Riff 4
(1 gitara)
es--------------------------------------------------------||
b---------------------------------------------------------||
fis-------------------------------------------------------||
cis-------------5---4---3-------------5---4---3---5-------||
as------5---4---------------5-4-2-0-|-----5---4-----------------------||
Es--0-------------------------------|-0-------------------------------||
(2 gitara)
es--------------------------------------------------------||
b---------------------------------------------------------||
fis-------------------------------------------------------||
cis-----------------4---------------------4---------------||
as--2---------------2---------------|-2---------------2---------------||
Es--0-------------------------------|-0-------------------------------||

Riff 5
(1 gitara)
es----------------------------------||
b-----------------------------------||
fis---------------------------------||
cis-----4-4-4-4---------4-4-4-4--5--||
as--2---2-2-2-2-----2---2-2-2-2--3--||
Es--0---------------0---------------||
        ^ ^ ^          ^ ^ ^
(2 gitara)
es----------------------------------||
b-----------------------------------||
fis-----------4---------------4--5--||
cis-2-2-4--5--------2-2-4--5--------||
as--2-2-------------2-2-------------||
Es--0-0-------------0-0-------------||
    ^ ^             ^ ^

Riff 6
(1 gitara)
es--------------------------------------------------------|
b-----------------------------------------5---------------|
fis-----0-----------0---2---4---5---|-----0---------------5---4---2---|
cis-2-------4---2-------------------|-2-------4---2-------------------|
as--------------------------------------------------------|
Es--0-------------------------------|-0-------------------------------|

(2 gitara - niby solo)
es--8-7-5-------------------------------------------------|
b---------8-7-5-------------------------------------------|
fis---------------------------------|-7-5-4-2-4/5-5-------------------|
cis-------------------------------------2-4/5/7-------7-5-|
as--------------------------------------------------------|
Es--------------------------------------------------------|

es----------------------------------|
b-----------------------------------|
fis---------------------------------|
cis-4h5p4---------------------------|
as--------------3-----5-------------|
Es----------------------------------|


Kolejnosc w utworze:
Wstep
4xRiff 1, 2xRiff 2, 4xRiff 1, 2xRiff 2, - 1 zwrotka

Riff 3, 2xRiff 4, 4xRiff 5 - refren

4xRiff 1, 2xRiff 2, 4xRiff 1, 2xRiff 2, - 2 zwrotka

Riff 3, 2xRiff 4, 4xRiff 5 - refren

6xRiff 6 (solo zaczyna sie pod koniec 2 razu)

4xRiff 1, 2xRiff 2, 4xRiff 1, 2xRiff 2, - 3 zwrotka

Riff 3, 2xRiff 4, 10xRiff 5 - refren + koniec


Текст, аккорды и табулатура для песни "On Golden Wings", исполняет "Tiamat".
Используемые в песне аккорды можно найти в разделе Как брать аккорды. Аккорды для шестиструнной гитары. Другие песни можно найти на нашем сайте, воспользовавшись алфавитным указателем вверху страницы.


 
Ошибка в тексте? Выделите ошибку и нажмите Ctrl+Enter