TAB by Thirdeye

RIFF A (Played throught whole song)
E|----------0-----------------0--------
B|--------0---0-------------0---0------
G|------5-------5---------5-------5----
D|----7-----------7-----7-----------7--
A|--0-----------------0----------------
E--------------------------

E|----------0----------------0---------
B|--------0---0------------0---0-------
G|------7-------7--------7-------7-----
D|----9-----------9----9-----------9---
A|--0----------------0-----------------
E--------------------------

CHORUS

"...You twinkle still..."
"...But the face of evil..."

E---------
B---------
G---------
D|--7----2----7----3--
A|--7----2----7----3--
E|--5----0----5----1--


Текст, аккорды и табулатура для песни "Mount Marilyn", исполняет "Tiamat".
Используемые в песне аккорды можно найти в разделе Как брать аккорды. Аккорды для шестиструнной гитары. Другие песни можно найти на нашем сайте, воспользовавшись алфавитным указателем вверху страницы.


 
Ошибка в тексте? Выделите ошибку и нажмите Ctrl+Enter