RIFF A 
E-----------------
B-----------------
G-----------------
D|--7-7-7-7-7-7---------------
A|--7-7-7-7-7-7---------------
E|--5-5-5-5-5-5---------------

E-----------------
B-----------------
G|-------7-7-9-10--10-10-7-5--
D|--3-------------------------
A|--3-------------------------
E|--1-------------------------


Текст, аккорды и табулатура для песни "Kevin`s Telescope", исполняет "Tiamat".
Используемые в песне аккорды можно найти в разделе Как брать аккорды. Аккорды для шестиструнной гитары. Другие песни можно найти на нашем сайте, воспользовавшись алфавитным указателем вверху страницы.


 
Ошибка в тексте? Выделите ошибку и нажмите Ctrl+Enter