/ - slide up
 - slide down
^ - tlumienie


Riff 1                   /----                       5x
es--------------------------|-------------------------||
b--------------------5-3-1--|(1)----------------------||
fis----------0---0----------|----------0---0---2-2----||
cis------------2------------|------------2---------3--||(3)
as--------------------------|-------------------------||
Es--------0--------0--------|-------0--------0--------||
                                                   -----/

Riff 2
(pierwsza gitara, druga gitara gra ciagle Riff 1)     2x
es--------------------------|-------------------------||
b---------------------------|-------------------------||
fis-------------------------|-------------------------||
cis-------------------------|-------------------------||
as--3--3--2-----------------|-3--3--2-----------------||
Es--1--1--0-----------------|-1--1--0-----------------||
    ^  ^                      ^  ^


Riff 2                      2x
es--------------------------||
b---------------------------||
fis-------------------------||
cis-2-----2--5--3-----3/4-3-||
as--0-----0--3--1-----1/2-1-||
Es--------------------------||
          ^           ^ ^

Riff 2 - 4x
"In a dream I´m climbing clouds..."


Riff 3                                                4x
es--------------------------|-------------------------||
b---------------------------|-------------------------||
fis-------------------------|-------------------------||
cis-------------------8-----|-------------7h8-7----10-||
as--2-----7--8--8-------7-8-|-7-----7--8--------10----||
Es--0--00-------6--66-------|-5--55-------------------||
       ^^          ^^            ^^
Potem jedna gitra gra to, przez 4 takty Riffu 2.
es--------------------------|
b---------------------------|
fis-------------------------|
cis-8~~~~-------------------|
as--------------------------|
Es--------------------------|

Riff 2 - 2x

Riff 2 - 4x
"In a dream Let me..."


Riff 4                                                4x
es--------------------------|-------------------------||--------------------|
b---------------------------|-------------------------||--------------------|
fis-------------------------|-------------------------||--------------------|
cis-----999--777----99--10--|-----999--777-9----------||--------------------|
as--2---777--555----77--8---|-----777--555-7----------||-2------------------|
Es--0-------------0---------|-0---------------5-3-5-1-||-0------------------|
        ^^^  ^^^  ^ ^             ^^^  ^^^ ^
"When the night is..."


Riff 2 - 2x

Riff 2 - 4x
"In a dream I stand naked..."

Riff 3 - 4x

Riff 2 - 2x

Riff 2 - 4x
"In a dream, In a pool..."

Riff 4 - 4x
"When the night is to rouse..."


Riff 5 (podczas solowki)                              2x
es--------------------------|-------------------------||
b---------------------------|-------------------------||
fis-------------------------|-------------------------||
cis-------------------------|-------------------------||
as--------777777------333---|-------777777222222000222||
Es--000000------333333---222|-000000------------------||

                                                      2x
es--------------------------|-------------------------||
b---------------------------|-------------------------||
fis-------------------------|-------------------------||
cis-------------------------|-------------------------||
as--------444444------333333|-------444444------4-2-5-||
Es--222222------222222------|-222222------222222------||

                                                      2x
es--------------------------|-------------------------||
b---------------------------|-------------------------||
fis-------------------------|-------------------------||
cis-------------------------|-------------------------||
as--------666666------555555|-------666666------6-4-7-||
Es--444444------444444------|-444444------444444------||


Riff 4 - 4x
"When the night is to rouse..."


Текст, аккорды и табулатура для песни "In A Dream", исполняет "Tiamat".
Используемые в песне аккорды можно найти в разделе Как брать аккорды. Аккорды для шестиструнной гитары. Другие песни можно найти на нашем сайте, воспользовавшись алфавитным указателем вверху страницы.


 
Ошибка в тексте? Выделите ошибку и нажмите Ctrl+Enter