Tiamat: I'm in love with myself

G--------------------------------------------------------------
D-------------------------------------2-2-2-2-2-2-2-2-2-2-2-2--
A--2-2-2-2-2-2-2-2-2-2-2-2-------------------------------------
E--------------------------------------------------------------
Verses                                                                            

G-----------------------------------
D-----------------------------------
A-----------------------------------
E--2-2-2-2-2-2-2-2-2-2-2-2-2-2-2-2--

G------------------------------------------------------------------------
D------------------------------------------------------------------------
A--2-2-2-2-2-2-2-2-2-2-2-2-----------------------------------------------
E-------------------------------------2-2-2-2-2-2-2-2---0-0-0-0-0-0-0-0--
Chorus


Текст, аккорды и табулатура для песни "I`m in Love With Myself", исполняет "Tiamat".
Используемые в песне аккорды можно найти в разделе Как брать аккорды. Аккорды для шестиструнной гитары. Другие песни можно найти на нашем сайте, воспользовавшись алфавитным указателем вверху страницы.


 
Ошибка в тексте? Выделите ошибку и нажмите Ctrl+Enter