Intro a
Solo
1|-12-10-8-7--7-8-7-5-3--5-7--7-8-7-5-3-|
2---------------------------|
3---------------------------|
Main Guiter
1----------------0------------------|
2|-----3----0----0---------1---------3----0-----|
3|-----0----0----0-------0-----------0----0---0-|
4|---2-----------------2------------------------|
5|-3-----3-2--2-3--2-3-------------2---2-3--2---|
6------------------0-3------------3-|

While the rest of you are sleeping safe and sound
I´m on the run I´m on the wing
Climb the selling when the walls are falling apart
I´m the one to blame for everything
Part 1
1----------------0----------------0-----------------0------------------|
2|-----3----0----0---------1---------3----0---0-|-----3----0----0---------1---------3----0-----|
3|-----0----0----0-------0-----------0----0-----|-----0----0----0-------0-----------0----0---0-|
4|---2-----------------2------------------------|---2-----------------2------------------------|
5|-3-----3-2--2-3--2-3-------------2---2-3--2---|-3-----3-2--2-3--2-3-------------2---2-3--2---|
6------------------0-3------------0-------------------0-3------------3-|

-4|-------|
-5|---0-2-|
-6|-3-----|

Part 2
1|-0-0-0-0-0-0-0-0-0-0--3-3-3-3-3-3-3-3-3-3-|
2|-1-1-1-1-1-1-1-1-1-1--3-3-3-3-3-3-3-3-3-3-|
3|-0-0-0-0-0-0-0-0-0-0--0-0-0-0-0-0-0-0-0-0-|
A substitute for God, a sacred muse
The hell with it, it´s just a lame excuse
Everything I ever used I have abused

Part3
1|-0-0-0-0-3-3-3-3-3-3-|
2|-1-1-1-1-3-3-3-3-3-3-|
3|-0-0-0-0-0-0-0-0-0-0-|
All I live for is my heaven of high
I´ll be there when the sun goes down

Withered Jimsonweed a night on bad speed
This purple haze works in mysterious ways
Wait another day to wash my sins away
In another time, in another place
Part 1

Intro a  в конце второго повтора 
1|---0--3-|
2|---1--3-|
3|-0---0--|

A substitute for God, a sacred muse
The hell with it, it´s just a lame excuse
Everything I ever used I have abused

All I live for is my heaven of high
I´ll be there when the sun goes down


Текст, аккорды и табулатура для песни "Heaven Of High", исполняет "Tiamat".
Используемые в песне аккорды можно найти в разделе Как брать аккорды. Аккорды для шестиструнной гитары. Другие песни можно найти на нашем сайте, воспользовавшись алфавитным указателем вверху страницы.


 
Ошибка в тексте? Выделите ошибку и нажмите Ctrl+Enter