Main Riff
4|-5--3-----------|-5--3-----------|-5--3-----------|-5--3-7-8--5-7-7-|
5|-3--1---3---2-2-|-3--1---3---2-2-|-3--1---3---2-2-|-3--1-5-6--3-5-5-|
6|------0-1-1-0-0-|------0-1-1-0-0-|------0-1-1-0-0-------|

Solo
1---------------------------------------------|-
2|-3h1h3h1-1h3-1------------|-3h1h3h1-1h3-1------------|-3h1h3h1-1h3-1------------|-
3----0-2--2-0-0-----0-2--2-0-0-----0-2--2-0-0-|-

-1-------------------|
-2|-3h1h3h1-1h3-1--3-4-----1-3-3-|
-3---------1-1-------|
You´re only but so is the desolate one
You´re drowning but so was the first born son
I´ll soak you in fire, fill your black holes
And free your soul

Main riff
Always cold outside
And it´s freezing inside
Into the fire we ride
A shortcut out of the white
Until we´re stitched to the night
Our faith our light

You´re standing still but spinning around the sun
You´re flying with your feet still on the ground
You´re pray in this world, it´s eating you
And that´s what I´ll do


Текст, аккорды и табулатура для песни "Fireflower", исполняет "Tiamat".
Используемые в песне аккорды можно найти в разделе Как брать аккорды. Аккорды для шестиструнной гитары. Другие песни можно найти на нашем сайте, воспользовавшись алфавитным указателем вверху страницы.


 
Ошибка в тексте? Выделите ошибку и нажмите Ctrl+Enter