Tune one step down

Chorus: (*listen to the song)                       
-----------10*---------------     -----------------    
-----11-13-------------13-11-     -----------------
|-12-12121212-12-------------------------     |-10*-------1110111011101110-
-----------------------------     -----------------
-----------------------------     -----------------
-----------------------------     -----------------

Rhy. Fig.1                                (I dont know of this)
-----------------------------     ----------
-----------------------------     ----------
-----------------------------     ----------
|-4--4------7--7------4--4------7--7-----     --4-------
|-4--4------7--7------4--4------7--7-----     |-777777------4-------
|-2--2------5--5------2--2------5--5-----     |-999999------2-------

Rhy. Fig.2
--------------------0------
--------------------1------
--------------------2------
--------------------2------
|---7--7--7--7--7--7--7--7--7---0------
|-555555555555555555555555555----------
 PM.---------------------------| 

 Acoustic Part:                               
-------------------------------------0---------------------------                
---1-----1---------------------1-----1---------1------1----------
-2---------2---2------2-2b-2p0-----2-2-------2------0------------
|---2------2-------2-----2------2------------2---------2------2--------2-----
|-0--------------------------------------------------0------3--------3---3-0-
-----------------------------------------------------------------

Outro:
----
----
|-10-11-10-11*--
----
----
----


Rhy. Fig.3  (who can hear it trough keyboards??)
-----------------------------------
-----------------------------------
-----------------------------------
------------------4----------------
|-4------5------7------9------4----------------
|-2------3------5------7------2----------------


Текст, аккорды и табулатура для песни "Cold Seed", исполняет "Tiamat".
Используемые в песне аккорды можно найти в разделе Как брать аккорды. Аккорды для шестиструнной гитары. Другие песни можно найти на нашем сайте, воспользовавшись алфавитным указателем вверху страницы.


 
Ошибка в тексте? Выделите ошибку и нажмите Ctrl+Enter