Another Thursday tab from me...
another dropped D song from Thursday.
This is a cool and easy song, have fun.
Its a little off but you'll get it.


x4
G--------------------------------------------------------
D--------------------------------------------------------
A-------------------------------------------------------- 
D-7-7-7-7-7-7-5-5-7-7-7-7-7-7-5-7-3-3-3-3-3-3-3-3-3-3-3-3

G--------
D---3----
A--------
D--------


x4
G-----5h7p5h7p5-------------5---------5----------
D-3/7------------7-----73-----3---3-------------
A------------------------------------------------
D------------------------------------------------

x4
G--------------------------------------------------------
D--------------------------------------------------------
A-------------------------------------------------------- 
D-7-7-7-7-7-7-5-5-7-7-7-7-7-7-5-7-3-3-3-3-3-3-3-3-3-3-3-3


x2
G-----------------------------------------------------------------------
D-----------------------------------------------------------------------
A-----------------8-8-8-8-7-7-7-8---------------------------------------
D-7-7-7-7-7-7-7-7-----------------0-0-0-0-0-0-0-0-0-0-0-0-0-0-0-0-------

x2
G--------------------------------------------------------------------
D--------------------------------------------------------------------
A--------------------------------------------------------------------
D-7-7-7-7-7-7-7-7-3-3-3-3-3-3-3-3-0-0-0-0-0-0-0-0-0-0-0-0-0-0-0-0---- 

x4
G--------------------------------------------------------------------
D--------------------------------------------------------------------
A--------------------------------------------------------------------
D-7-7-7-7-7-7-7-7-7-7-7-7-7-7-7-7-3-3-3-3-3-3-3-3-3-3-3-3-3-3-3-3----


4x
G--------------------------------------------------------
D--------------------------------------------------------
A-------------------------------------------------------- 
D-7-7-7-7-7-7-5-5-7-7-7-7-7-7-5-7-3-3-3-3-3-3-3-3-3-3-3-3

x1
G--------------------------------------------------------
D--------------------------------------------------------
A-------------------------------------------------------- 
D-7-7-7-7-7-7-5-5-7-7-7-7-7-7-5-7-3-3-3-3-3-3-3-3-3-3-3-3


2x
G---------------------------------------------------------
D---------------------------------------------------------
A--------------7-8-8-7-7-7-------------------------------
D-7-7-7--7-7-7--------------0-0-0--0-0-0--0-0-0--0-0-0----


2x
G---------------------------------------------------------
D---------------------------------------------------------
A---------------------------------------------------------
D-7-7-7--7-7-7--3-3-3--2-2-2--0-0-0--0-0-0--0-0-0--0-0-0--


2x

G---------------------------------------------------------------------
D---------------------------------------------------------------------
A---------------------------------------------------------------------
D-7-7-7-7-7-7-7-7-3-3-3-3-3-3-3-3-0-0-0-0-0-0-0-0-0-0-0-0-0-0-0-0-----


4x

G---------------------------------------------------------
D---------------------------------------------------------
A---------------------------------------------------------
D-7-7-7--7-7-7--3-3-3--2-2-2--0-0-0--0-0-0--0-0-0--0-0-0--


G------
D------
A------
D--7---


Текст, аккорды и табулатура для песни "Understanding In A Car Crash", исполняет "Thursday".
Используемые в песне аккорды можно найти в разделе Как брать аккорды. Аккорды для шестиструнной гитары. Другие песни можно найти на нашем сайте, воспользовавшись алфавитным указателем вверху страницы.


 
Ошибка в тексте? Выделите ошибку и нажмите Ctrl+Enter