--------------------------------------------------------------------------
'UNDERSTANDING IN A CAR CRASH'
Written and performed by Thursday
From their album 'Full Collapse' (2002)
Victory Records
--------------------------------------------------------------------------

All guitars are in dropped-D tuning (Low to high: D A D G B E)
Tempo: 164

This is just the intro for now. I'll post the rest very soon. I tabbed this
with help from the lesson from Tom Keeley & Steve Pedulla's column in Guitar
World, 'Signals Over The Air'.

INTRO\\

Guitar 1: Steve Pedulla (Electric with distortion)
1  |----------------|-----------------|----------------|-----------------|
2  |----------5p0---|-------5p0-------|----------5p0---|-------5p0-------|
3  |----5p0-0-----0-|-5p0-------0-5p0-|----4p0-------0-|-5p0-------0-5p0-|
4  |-7--------------|-----7-----------|-3------3-------|-----0-----------|  X4
5  |----------------|-----------------|----------------|-----------------|
6  |----------------|-----------------|----------------|-----------------|

Guitar 2: Tom Keeley (Electric with heavy distortion)
1  |----0-----------|-----------------|----------------|-----------------|
2  |----0-----------|-----------------|----------------|-----------------|
3  |-5--5---5-5-5-5-|-5-5-5-5-5---5-5-|----------------|-----------------|
4  |-x--x---x-x-x-x-|-x-x-x-x-x---x-x-|-3--5-5-5-3---3-|-5-----3-3---3-3-|  X2
5  |-7--7---7-7-7-7-|-7-7-7-7-7---7-7-|-3--3-3-3-3---3-|-3-----3-3---3-3-|
6  |-7--7---7-7-7-7-|-7-7-7-7-7---7-7-|-3--3-3-3-3---3-|-3-----3-3---3-3-|

1  |----------------|-----------------|----------------|-----------------|
2  |----------5p0---|-------5p0-------|----------5p0---|-------5p0-------|
3  |----5p0---------|-5p0---------5p0-|----5p0---------|-5p0---------5p0-|
4  |----------------|-----------------|----------------|-----------------|  X2
5  |-7------7-----7-|-----7-----7-----|-3------3-----3-|-----3-----3-----|
6  |-7------7-----7-|-----7-----7-----|-3------3-----3-|-----3-----3-----|



Guitar 2: Tom Keeley (Clean electric with flanger?)

1  |-----------------|-----------------|---------0-------|-----------------|
2  |---0-----8-------|-----5p0---------|---0-----------0-|-------3-----3---|
3  |-----5-----5---7-|-5---------5p0h5-|-----5-----5-----|-5---5---5-----0-|
4  |-------7-----7---|---7-----7-------|-3-----3-----3---|---0-------0-----|
5  |-0---------------|-----------------|-----------------|-----------------|
6  |-----------------|-----------------|-----------------|-----------------|

LYRICS\\

I'll post these very soon too...


Текст, аккорды и табулатура для песни "Understanding In A Car Crash", исполняет "Thursday".
Используемые в песне аккорды можно найти в разделе Как брать аккорды. Аккорды для шестиструнной гитары. Другие песни можно найти на нашем сайте, воспользовавшись алфавитным указателем вверху страницы.


 
Ошибка в тексте? Выделите ошибку и нажмите Ctrl+Enter