This Side of Brightness- Thursday
[email protected]



Intro (3x)

Guitar 1
  
e---3-------3-------------------------
b---3-------3-------------------------
g---0-------0-------------------------
d---2-------2-------------------------
a---3-------2-------------------------
e-----------0-------------------------


Guitar 2

e--2p0----2p0--------------------------
b--3------0----------------------------
d--0------0----------------------------
g--2------2----------------------------
a--3------2----------------------------
e--------------------------------------


Guitar 2(alternate) 
e------------------------------------
b---5-5-7p5--------------------------
g---7-7-7-7--------------------------
d---5-5-5-5--------------------------
a------------------------------------
e------------------------------------

On the 4th time, just before the distortion, 
replace   
e---2---------------------------------
b---3---------------------------------
g---0---------------------------------
d---x---------------------------------
a---2---------------------------------
e------------------------------------

Distortion part
e------------------------------------
b--3-----3---------------------------
g--0-----0---------------------------x4
d--2-----2---------------------------
a--3-----2---------------------------
e------------------------------------

Verse2 
  5x                          1x             1x(With Distortion)
e|---------------------------|--------------|----------------|
B|-1-1-1-111-11-0-0-0-000-00-|-1-1-1-111-11-|----------------|
G|-0-0-0-000-00-0-0-0-000-00-|-0-0-0-000-00-|----------------|
D|-2-2-2-222-22-2-2-2-222-22-|-2-2-2-222-22-|-22222222222222-|
A|-3-3-3-333-33-3-3-3-333-33-|-3-3-3-333-33-|-22222222222222-|
D|---------------------------|--------------|-22222222222222-|

-Verse1

Verse2   4x
e|---------------------------|
B|-1-1-1-111-11-0-0-0-000-00-|
G|-0-0-0-000-00-0-0-0-000-00-|
D|-2-2-2-222-22-2-2-2-222-22-|
A|-3-3-3-333-33-3-3-3-333-33-|
D|---------------------------|

Verse3 (With Distortion) :
  4x
e|-----------------|
B|-33333-----------|
G|-00000-----------|
D|-22222-----22222-|
A|-33333-----22222-|
D|-----------22222-|

Verse4 (With palm mute):
  3x                                      1x
e|---------------------------------------|-----------------------------------|
B|-3333-3-33-3-33-3-3--------------------|-3333-3-33-3-33-3-3----------------|
G|-0000-0-00-0-00-0-0--------------------|-0000-0-00-0-00-0-0-999999-1414-12-|
D|-2222-2-22-2-22-2-2-2222-2-22-2-22-2-2-|-2222-2-22-2-22-2-2----------------|
A|-3333-3-33-3-33-3-3-2222-2-22-2-22-2-2-|-3333-3-33-3-33-3-3-777777-1212-10-|
D|--------------------2222-2-22-2-22-2-2-|-----------------------------------|

-Verse1

Outro :
  1x
e|-----------------------------|
B|-----------------------------|
G|-1212121212-14-17-99999-7777-|
D|-----------------------------|
A|-1010101010-12-15-77777-5555-|
D|-----------------------------|

  1x
e|------------------------------|
B|------------------------------|
G|-1212121212-14-17-4-5-4-55-44-|
D|------------------------------|
A|-1010101010-12-15-2-3-2-33-22-|
D|------------------------------|

  1x
e|-------------------------------------|
B|-------------------------------------|
G|-1212121212-14-17-16-17-16-1717-1616-|
D|-------------------------------------|
A|-1010101010-12-15-14-15-14-1515-1414-|
D|-------------------------------------|

  1x
e|-----------------------------|
B|-----------------------------|
G|-1212121212-14-17-9999999999-|
D|-----------------------------|
A|-1010101010-12-15-7777777777-|
D|-----------------------------|


Текст, аккорды и табулатура для песни "This Side Of Brightness", исполняет "Thursday".
Используемые в песне аккорды можно найти в разделе Как брать аккорды. Аккорды для шестиструнной гитары. Другие песни можно найти на нашем сайте, воспользовавшись алфавитным указателем вверху страницы.


 
Ошибка в тексте? Выделите ошибку и нажмите Ctrl+Enter