Standing On the Egde of Summer - Thursday
----------------------------------------------------------------------------
Tabbed by:matt
Email:[email protected]

Tuning: dropped D

Intro(clean):
e|---------------------------------------------------------------------|
B|-5-x-5-x-5-x-5-------------------------------------------------------|
G|-6-x-6-x-6-x-6-------------------------------------------------------|
D|-4-x-4-x-4-x-4-------------------------------------------------------| x2
A|-5-x-5---4-x-4------------------------------------------------------|
D|---------------------------------------------------------------------|
   **repeat each note 8 times**
e|---------------------------------------------------------------------|
B|---------------------------------------------------------------------|
G|---------------------------------------------------------------------|
D|-0-x-0-x-4-x-4-------------------------------------------------------| x2
A|-0-x-0-x-4-x-4-------------------------------------------------------|
D|-0-x-0-x-4-x-4-------------------------------------------------------|
 **repeat each note 8 times** (distortion)
verse-
e|---------------------------------------------------------------------|
B|-3-/-7---------------------------------------------------------------|
G|-2-/-6---------------------------------------------------------------|
D|-0-/-4---------------------------------------------------------------|
A|-0-/-4---------------------------------------------------------------|
D|-0-/-4---------------------------------------------------------------|
  **repeat each note 8 times**(clean)
e|---------------------------------------------------------------------|
B|-5-x-5-x-5-x-5-------------------------------------------------------|
G|-6-x-6-x-6-x-6-------------------------------------------------------|
D|-4-x-4-x-4-x-4-------------------------------------------------------| x2
A|-5-x-5---4-x-4------------------------------------------------------|
D|---------------------------------------------------------------------|
   **repeat each note 8 times** (clean)
e|---------------------------------------------------------------------|
B|---------------------------------------------------------------------|
G|---------------------------------------------------------------------|
D|-0-x-0-x-4-x-4-------------------------------------------------------| x2
A|-0-x-0-x-4-x-4-------------------------------------------------------|
D|-0-x-0-x-4-x-4-------------------------------------------------------|
 **repeat each note 8 times** (distortion)
e|---------------------------------------------------------------------|
B|-3-/-7---------------------------------------------------------------|
G|-2-/-6---------------------------------------------------------------|
D|-0-/-4---------------------------------------------------------------|
A|-0-/-4---------------------------------------------------------------|
D|-0-/-4---------------------------------------------------------------|
  **repeat each not 8 times** (clean)

e|-12-12-12-12-12-12/10-10-10-10-10-10/9-9-9-9-9-9---------------------|
B|---------------------------------------------------------------------|
G|---------------------------------------------------------------------|
D|---------------------------------------------------------------------|
A|---------------------------------------------------------------------|
D|---------------------------------------------------------------------|

repeat intro distorted...

e|---------------------------------------------------------------------|
B|---------------------------------------------------------------------|
G|-0-0-6-6-6-6-6-------------------------------------------------------|
D|-0-0-x-0-0-0-x-------------------------------------------------------|
A|-0-0-4-0-0-0-4-------------------------------------------------------|
D|-0-0----0-0-0--------------------------------------------------------|
   distortion
e|---------------------------------------------------------------------|
B|-3-/-7---------------------------------------------------------------|
G|-2-/-6---------------------------------------------------------------|
D|-0-/-4---------------------------------------------------------------|
A|-0-/-4---------------------------------------------------------------|
D|-0-/-4---------------------------------------------------------------|
  **repeat each note 8 times**(clean)

e|---------------------------------------------------------------------|
B|-5-x-5-x-5-x-5-------------------------------------------------------|
G|-6-x-6-x-6-x-6-------------------------------------------------------|
D|-4-x-4-x-4-x-4-------------------------------------------------------| x2
A|-5-x-5---4-x-4------------------------------------------------------|
D|---------------------------------------------------------------------|
   **repeat each note 8 times** (distortion)

e|---------------------------------------------------------------------|
B|---------------------------------------------------------------------|
G|-0-0-6-6-6-6-6-6-6-6-6-6-6-6/86-------------------------------------|
D|-0-0-x-0-0-0-x-0-0-x-0-0-0-x-x-x-------------------------------------|x2
A|-0-0-4-0-0-0-4-0-0-4-0-0-0-4/64-------------------------------------|
D|-0-0----0-0-0---0-0--------------------------------------------------|
   distortion
e|---------------------------------------------------------------------|
B|---------------------------------------------------------------------|
G|-0-0-6-6-0-0-0-8-8---------------------------------------------------|
D|-0-0-x-x-0-0-0-x-x---------------------------------------------------|
A|-0-0-4-4-0-0-0-6-6---------------------------------------------------|
D|-0-0------0-0-0------------------------------------------------------|
  distortion
outro:
e|---------------------------------------------------------------------|
B|---------------------------------------------------------------------|
G|-0-0-6-6-6-6-6-6-6-6-6-6-6-6/86-------------------------------------|
D|-0-0-x-0-0-0-x-0-0-x-0-0-0-x-x-x-------------------------------------|
A|-0-0-4-0-0-0-4-0-0-4-0-0-0-4/64-------------------------------------|
D|-0-0----0-0-0---0-0--------------------------------------------------|
  distortion

| /  slide up
|   slide down
| x  Mute note


send me the comments. -_-


Текст, аккорды и табулатура для песни "Standing On The Edge Of Summer", исполняет "Thursday".
Используемые в песне аккорды можно найти в разделе Как брать аккорды. Аккорды для шестиструнной гитары. Другие песни можно найти на нашем сайте, воспользовавшись алфавитным указателем вверху страницы.


 
Ошибка в тексте? Выделите ошибку и нажмите Ctrl+Enter