Thursday
Paris in Flames
tabbed by:warlock 225 (aka jua)
Dropped D

This is a great song from an amazing band, if you ever get the chance to see
them live in concert, dont pass it up they are absolutely amazing live.

intro
|--------------------------------------------------|
|--------10--------10----------9---------9---------|
|-----------10--------10---------9---------9h10----|
|--------------------------------------------------|
|--8-8-8------8-8-8------7-7-7-—----7-7-7----------|
|--8-8-8-----—8-8-8------7-7-7------7-7-7----------|

|--------------------------------|
|--------------------------------|
|--------------------------------|
|--------------------------------|  repeat this a bunch of times
|-8-8-8-7-7-7-8-8-8-7-7-7-8-8-8—-|
|-8-8-8-7-7-7-8-8-8—7-7-7-8-8-8--|

chorus
|------------------------------------------|
|------------------------------------------|
|-----------------------------------0-2----|
|-----------------------0-2---0-2-3--------|
|-8-8-8-7-7-7--3----1-3--—--3--------------|
|-8-8-8-7-7-7--3-—-------------------------|

most of this song is played off of four chords
|----------------------------|
|----------------------------|
|----------------------------|
|---8-----7-----3-----2------|
|---8-----7-----3-----0-—----|
|---8-----7---—-3-----0------|

thats all i know you should be able to figure out the rest
all aboard the jua train
wooo  woooo


Текст, аккорды и табулатура для песни "Paris In Flames", исполняет "Thursday".
Используемые в песне аккорды можно найти в разделе Как брать аккорды. Аккорды для шестиструнной гитары. Другие песни можно найти на нашем сайте, воспользовавшись алфавитным указателем вверху страницы.


 
Ошибка в тексте? Выделите ошибку и нажмите Ctrl+Enter