Ok this is pretty much so you can play the song on one guitar.
a few parts with the different guitar parts.

X-muted
*-palm mute
p-pull off
~-vibrato(quick bending and releasing of a note)


intro part 1 guitar a
e--------------------------------------------------------------------------- 
B--------------------------------------------------------------------------- 
G--------------------------------------------------------------------------- 
D---9---7---9--10--9--7---9---10---9---7---9---10---9---7---5---4---2------- 
A-7---7---7--7---7--7---7---7----0---0---0---0----0---0---0---0---0--------- 
E--------------------------------------------------------------------------- 

e--------------------------------------------------------------------------- 
B--------------------------------------------------------------------------- 
G--------------------------------------------------------------------------- 
D---5---4---5---7---5---7--------------------------------------------------- 
A-3---3---3---5---5---5------10---9---10---10--9---7---6-------------------- 
E--------------------------7----7---7----7----7--7---7----------------------

intro part 1 guitar b
e----------------------------------------------------------------------------
B----------------------------------------------------------------------------
G----------------------------------------------------------------------------
D----------------------------------------------------------------------------
A---7-----0-----3---5---2----------------------------------------------------

both guitars
e----------------------------------------------------------------------------
B----------------------------------------------------------------------------
G----------------------------------------------------------------------------
D---9-7----------------------------------------------------------------------
A-------10-9---------------or--------------------------10-9------------------
E-----------------------------------------------------------12-10------------

intro part 2 both guitars
e----------------------------------------------------------------------------
B----------------------------------------------------------------------------
G-9-99-10-10-------------888-10-10-10----------------------------------------
D-9-99-10-10-99-10-10-10-888-10-10-10----------------------------------------
A-7-77-8--8--99-10-10-10-666-8--8--8-----------------------------------------
E-7-77-8--8--77-8--8--8--666-8--8--8-----------------------------------------

e----------------------------------------------------------------------------
B----------------------------------------------------------------------------
G-9-99-10-10---------8-8-8-8-8-8---------------------------------------------
D-9-99-10-10-9-9-10--8-8-8-8-8-8--2------x-----------------------------------
A-7-77-8--8--9-9-10--6-6-6-6-6-6--2------x----pick slide---------------------
e-7-77-8--8--7-7-8---6-6-6-6-6-6--0------x-----------------------------------
                     * * * * * *
verse
e----------------------------------------------------------------------------
B----------------------------------------------------------------------------
G----------------------------------------------------------------------------
D--2-4-5-7-5-4--22244455777999-2224445577755544-2-4-5-7-9--------------------
A--2-4-5-5-3-2--22244455555777-2224445555533322-2-4-5-5-7--------------------
E--0-2-3-5-3-2--00022233555777-0002223355533322-0-2-3-5-7--------------------
                ************** ****************

pre-chorus -guitar a                   guitar b
e----------------------------------------------------------------------------
B----------------------------------------------------------------------------
G----------------------------------------------------------------------------
D-----2--3p2-----4--5p4-----5---7p5-----555555557777777799999999-------------
A-3-3--3-----5-5--5-----7-7---7---------333333335555555577777777-------------
E----------------------------------------------------------------------------
  * *  *     * *  *     * *   *         ************************

pre-chorus both guitars
e----------------------------------------------------------------------------
B----------------------------------------------------------------------------
G-5-5-5-5-7-7-7-7---------------------5-5-5-5-7-7-7-7------------------------
D-5-5-5-5-7-7-7-7-7-7-7-7-10-10-10-10-5-5-5-5-7-7-7-7------------------------
A-3-3-3-3-5-5-5-5-7-7-7-7-10-10-10-10-3-3-3-3-5-5-5-5------------------------
E-3-3-3-3-5-5-5-5-5-5-5-5-8--8--8--8--3-3-3-3-5-5-5-5------------------------

chorus -both guitars
e----------------------------------------------------------------------------
B----------------------------------------------------------------------------
G-9-99----------55555-77777----9-9-----------5--7--9-------------------------
D-9-99-9--7-5-4-55555-77777----9-99-9--7-5-4-5--7--9----------x--------------
A-7-77-10-9-7-5-33333-55555----7-77-10-9-7-5-3--5--7----------xpick slide----
E-7-77----------33333-55555----7-77----------3--5--7----------x--------------

verse
pre-chorus
chorus

bridge (E5-F5-D5-C5-B5)
e----------------------------------------------------------------------------
B----------------------------------------------------------------------------
G----------------------------------------------------------------------------
D----9-----9-----10-----10-----7-----7-----5-----4---------------------------
A-7-7-7-7-7-7-8-8--8-8-8--8-5-5-5-5-5-5-3-3-3-2-2-2--------------------------
E----------------------------------------------------------------------------
  * *** * *** * ** * * ** * * *** * *** * *** * ***

e----------------------------------------------------------------------------
B----------------------------------------------------------------------------
G----------------------------------------------------------------------------
D-22-3~-22-2~----------------------------------------------------------------
A-22----22-------------------------------------------------------------------
E-00----00-------------------------------------------------------------------

guitar a
e----------------------------------------------------------------------------
B----------------------------------------------------------------------------
G-99-9-99-9-10-10-10-10-10-10-77-7-77-7-55-5-44-4----------------------------
D-99-9-99-9-10-10-10-10-10-10-77-7-77-7-55-5-44-4----------------------------
A-77-7-77-7-8--8--8--8--8--8--55-5-55-5-33-3-22-2----------------------------
E----------------------------------------------------------------------------

guitar b
e----------------------------------------------------------------------------
B----------------------------------------------------------------------------
G----------------------------------------------------------------------------
D-99-9-99-9-10-10-10-10-10-10-77-7-77-7-55-5-44-4----------------------------
A-77-7-77-7-8--8--8--8--8--8--55-5-55-5-33-3-22-2----------------------------
E-77-7-77-7-8--8--8--8--8--8--55-5-55-5-33-3-22-2----------------------------

guitar c(those with 7 string guitars)
e----------------------------------------------------------------------------
B----------------------------------------------------------------------------
G----------------------------------------------------------------------------
D----------------------------------------------------------------------------
A-77-7-77-7-88-8-88-8-55-5-55-5-33-3-22-2------------------------------------
E-77-7-77-7-88-8-88-8-55-5-55-5-33-3-22-2------------------------------------
B-55-5-55-5-66-6-66-6-33-3-33-3-11-1-00-0------------------------------------

both guitars
e----------------------------------------------------------------------------
B----------------------------------------------------------------------------
G----------------------------------------5~----------------------------------
D-222-2-2222-3~-222-2-2222-3~-222-2-2222-3~-222-2-2222-3~--------------------
A-222-2-2222----222-2-2222----222-2-2222----222-2-2222-----------------------
E-000-0-0000----000-0-0000----000-0-0000----000-0-0000-----------------------
  *** * ****    *** * ****    *** * ****    *** * ****

e----------------------------------------------------------------------------
B----------------------------------------------------------------------------
G----------------------------------------------------------------------------
D-2-5-4--2-5-8--2-5-4--7-5-8---2-5-4--2-5-4--2-5-4-55577777710101010-9999----
A-2-5-4--2-5-8--2-5-4--7-5-8---2-5-4--2-5-4--2-5-4-33355577710101010-7777----
E-0-3-2--0-3-6--0-3-2--5-3-6---0-3-2--0-3-2--0-3-2-3335555558-8-8-8--7777----
                                                                     ****

thats the general idea. if you play each part you can figure out when its played.
this is almost 100% correct. i think i only missed a few parts. only little ones
though. have fun.


Текст, аккорды и табулатура для песни "Under Par", исполняет "Thrice".
Используемые в песне аккорды можно найти в разделе Как брать аккорды. Аккорды для шестиструнной гитары. Другие песни можно найти на нашем сайте, воспользовавшись алфавитным указателем вверху страницы.


 
Ошибка в тексте? Выделите ошибку и нажмите Ctrl+Enter