Song: Ultra Blue
Artist: Thrice
Album: Identity Crisis
Tabbed by: Christian / [email protected]


PM - Palm mute
x - Mute string
* - Harmonic
~ - Let ring
///X - Pick slide
h - Hammer on


Tuning: Standard (EADGBE)

All the parts are there, just figure out where they go and where to play them. 


Intro - Guitar 1
|----------------------------|
|----------------------------|
|-----6-7-6--------6-7-6-----|
|-0-7----------0-7-------7---|
|-----------5--------------5-|
|----------------------------|


Intro - Guitar 2
|-------------------|
|-------------------|
|-7-7-7-7---4-4-4-4-|
|-7-7-7-7---4-4-4-4-|
|-5-5-5-5---2-2-2-2-|
|-5-5-5-5---2-2-2-2-|


Guitar 1 (palm mute most notes during verse)
|----------------------------|
|-7---7-5-7-7----5-7-8-7-5---|
|---7----------7-----------7-|
|----------------------------|
|----------------------------|
|----------------------------|


Both Guitars
|------------------------|
|------------------------|
|--------777777----------|
|-555555-777777-77777777-|
|-555555-555555-77777777-|
|-333333--------55555555-|


|-------------------------------------------------------------------------------|
|-------------------------------------------------------------------------------|
|--------777777-----------------------------------------------------------------|
|-555555-777777-14-14-14-14-14-14-14-14--5-5555-5-55-5-55-5--7-7777-7-77-7-77-7-|
|-555555-555555--------------------------5-5555-5-55-5-55-5--7-7777-7-77-7-77-7-|
|-333333--------12-12-12-12-12-12-12-12--3-3333-3-33-3-33-3--5-5555-5-55-5-55-5-|
PM                                         ----   --   --      ----   --   --

Breakdown
|---------------------|
|---------------------|
|-----x-x----7*-------|
|-----x-x-7*----7*-7*-|
|---------------------|
|-7~------------------|


|---------------------|
|---------------------|
|---------------------|
|---------------------|
|---------------------|
|-///X----------------|


|---------------------------------------------------------------------|
|---------------------------------------------------------------------|
|---------------------------------------------------------------------|
|---------------------------------------------------------------------|
|------------9--9------------------------------9--9-------------------|
|-7---7-9-10------10-9---9h10-9h10--7---7-9-10------10-10---9h10-9h10-|


|--------------------------------------------------------------------------------------------------------------|
|--------------------------------------------------------------------------------------------------------------|
|--------------------------------------------------------------------------------------------------------------|
|----------------------7--7-----------------------------------------------------7-7----------------------------|
|----------------5-7-9------9-7-7-7-7-7-7-7-7h9-9-9-7h9-9-9---------------5-7-9-----9-9-9-9-9-9-7h9-9-9-7h9-9-9|
|7-7-7-7-7-7-7-7--------------------------------------------7-7-7-7-7-7-7--------------------------------------|
PM - - - - - - - - - -          - - - - - -     - -     - -   - - - - - - - - -         - - - -     - -     - -


Both Guitars
|--------------------------------------------------|
|--------------------------------------------------|
|-4444444444-----------------------7777777---------|
|-4444444444-4444444444-5555555555-7777777-7777777-|
|-2222222222-4444444444-5555555555-5555555-7777777-|
|------------2222222222-3333333333---------5555555-|


Текст, аккорды и табулатура для песни "Ultra Blue", исполняет "Thrice".
Используемые в песне аккорды можно найти в разделе Как брать аккорды. Аккорды для шестиструнной гитары. Другие песни можно найти на нашем сайте, воспользовавшись алфавитным указателем вверху страницы.


 
Ошибка в тексте? Выделите ошибку и нажмите Ctrl+Enter