Thrice
To what end

Intro riff
             D            G#
e----------10----8---8--8---8-------------------------------|
b--------------------9--9---9-------------------------------|
g-----------------------------------------------------------|
d-----------------------------------------------------------|
a-----------------------------------------------------------|
E-----------------------------------------------------------|

Lead riff
e--------------------------------------------------------|
b--------------------------------------------------------|
g---------------------0--------0--2----0--3--2--0--------|
d---0--2-3---0--2-3----0--3-------3----------------------|
a--------------------------------------------------------|
E--------------------------------------------------------|
D                                 D
To what end do we, proceed so boldly
D                           D
If all we are is, Chemical reactions
A#                                           A#
And what world have you , so deftly sold me
D                                  D
If you reduce me, if I have no soul to touch

Bb                                      C
No heart to love, no evil to rise up above
              D                                   Bb               C
No angels and no ghosts, real victory?s to toast ,
               Bb                                                   A
If you believe that this is true then I must ask to what end to we proceed


(Play with intro)
No fire in our eyes, no steel in our hearts

No magic in our songs, are we just empty vessels

(Lead Riff x7)
 (there is an alter guitar part here that I could not figure out, if you do let me know)
 D                                 C
No fire in our eyes, no steel in our hearts
         G                                         A
No magic in our songs,   (2nd time) and they tell me I?ve?.
(chorus)

Octave part: Strum it through.(these octaves are pretty close but I?m not sure)
e----------------------------------------------------------------|
b----------------------------------------------------------------|
g----7-----9/10---3----2-----------------------------------------|
d-------------------------2--------------------------------------|
a----5-----7/8-----1----0----------------------------------------|
E----------------------------------------------------------------|

D-C-G-A#-A

Did I not feel your love did I not feel your hate
And did my heart not beat and did, my heart not break
And are these tears for not, and are these words in vain
If this is all we are than what have we to gain
What of all the art and books, music and poetry
What of all our memory?s what of our hopes and dreams
We hold no value then, we hold no faith but greed, so I must ask you to what end do we proceed.


This is the gist of the song, I know the lead riff is right, so enjoy!


Текст, аккорды и табулатура для песни "To What End", исполняет "Thrice".
Используемые в песне аккорды можно найти в разделе Как брать аккорды. Аккорды для шестиструнной гитары. Другие песни можно найти на нашем сайте, воспользовавшись алфавитным указателем вверху страницы.


 
Ошибка в тексте? Выделите ошибку и нажмите Ctrl+Enter