Thrice - T&C
Submitted By: Marcel
EMail: [email protected]


Standard Tuning: E A D G B e

 x = mute
 ~ = let ring
 h = hammer
 p = pull off
 / = slide

Intro: Teppei
e|--------------------------------------------------------------------|
B|--------------------------------------------------------------------|
G|------6-----4---------------------------6-----4---------------------|
D|------------------7-----7-----6h7-------------------7-----7-----6---|
A|--4-4---4-4---4-4---4-4---4-4-------4-4---4-4---4-4---4-4---4-4-----|
E|--------------------------------------------------------------------|
    x x   x x   x x   x x   x x       x x   x x   x x   x x   x x

e|--------------------------------------------------------------------|
B|--------------------------------------------------------------------|
G|------6-----4---------------------------6-----4---------------------|
D|------------------7-----7-----6h7-------------------7-----7-----6---|
A|--0-0---0-0---0-0---0-0---0-0-------0-0---0-0---0-0---0-0---0-0-----|
E|--------------------------------------------------------------------|
    x x   x x   x x   x x   x x       x x   x x   x x x x x x x x x  

(High part)
e|---------------------------------------------------------------------|
B|------5-----4---------------------------5-----4----------------------|
G|------------------6-----6-----4h6-------------------6-----6-----4h6--|
D|---------------------------------------------------------------------|
A|--4-4---4-4---4-4---4-4---4-4-------4-4---4-4---4-4---4-4---4-4------|
E|---------------------------------------------------------------------|
    x x   x x   x x   x x   x x       x x   x x   x x   x x   x x

e|---------------------------------------------------------------------|
B|------5-----4---------------------------5-----4----------------------|
G|------------------6-----6-----4h6-------------------6-----6-----4h6--|
D|---------------------------------------------------------------------|
A|--0-0---0-0---0-0---0-0---0-0-------0-0---0-0---0-0---0-0---0-0------|
E|---------------------------------------------------------------------|
    x x   x x   x x   x x   x x       x x   x x   x x   x x   x x
    
Intro: Dustin
e|------------------------------------4--------------------------------|
B|--------------------------------------5------------------------------|
G|--6~--------------------6~--------------6----------------------------|
D|--6~---------7----------6~-------------------7-----------------------|
A|--4~---------7----------4~-------------------7-----------------------|
E|-------------5-------------------------------5-----------------------|

Dustin plays this while Teppei plays the high part
e|---------------------------------------------------------------------|
B|---------------------------------------------------------------------|
G|------6-----4---------------------------6-----4----------------------|
D|------------------7-----7-----6h7-------------------7-----7-----6h7--|
A|--4-4---4-4---4-4---4-4---4-4-------4-4---4-4---4-4---4-4---4-4------|
E|---------------------------------------------------------------------|
    x x   x x   x x   x x   x x       x x   x x   x x   x x   x x

e|---------------------------------------------------------------------|
B|---------------------------------------------------------------------|
G|------6-----4---------------------------6-----4----------------------|
D|------------------7-----7-----6h7-------------------7-----7-----6h7--|
A|--0-0---0-0---0-0---0-0---0-0-------0-0---0-0---0-0---0-0---0-0------|
E|---------------------------------------------------------------------|
    x x   x x   x x   x x   x x       x x   x x   x x x x x x x x x  

Intro part 2:
Teppei (8x)
e|-------------------------------------|
B|-------------------------------------|
G|--9-9--8-8--6-6-6-6--4-/-6-----------|
D|-----------------------/-------------|
A|--7-7--6-6--4-4-4-4--2-/-4-----------|
E|-------------------------------------|

Dustin (2x) 
e|-------------------------------------|
B|-------------------------------------|
G|--6----------------------------------|
D|--6-------7-------9-------6----------|
A|--4-------7-------9-------6----------|
E|----------5-------7-------4----------|
figure out the rythm yourself

 Verse:
Teppei (2x)
e|---------------------------------------------------------------------|
B|------5-----4---------------------------5-----4----------------------|
G|------------------6-----6-----4h6-------------------6-----6-----4h6--|
D|---------------------------------------------------------------------|
A|--4-4---4-4---4-4---4-4---4-4-------4-4---4-4---4-4---4-4---4-4------|
E|---------------------------------------------------------------------|
    x x   x x   x x   x x   x x       x x   x x   x x   x x   x x

e|---------------------------------------------------------------------|
B|------5-----4---------------------------5-----4----------------------|
G|------------------6-----6-----4h6-------------------6-----6-----4h6--|
D|---------------------------------------------------------------------|
A|--0-0---0-0---0-0---0-0---0-0-------0-0---0-0---0-0---0-0---0-0------|
E|---------------------------------------------------------------------|
    x x   x x   x x   x x   x x       x x   x x   x x   x x   x x
  
Dustin (2x) 
e|-------------------------------------|
B|-------------------------------------|
G|--6----------------------------------|
D|--6-------7-------9-------6----------|
A|--4-------7-------9-------6----------|
E|----------5-------7-------4----------|

 Chorus: (4x)
Teppei & Dustin
e|-------------------------------------------------------------|
B|-------------------------------------------------------------|
G|--6-6-6--8--9-9-9-9-9-9-9------------------------------------|
D|--6-6-6--8--9-9-9-9-9-9-9--7-7-7-7-7--9-9-9-9-9-9-9-9--------|
A|--4-4-4--6--7-7-7-7-7-7-7--7-7-7-7-7--9-9-9-9-9-9-9-9--------|
E|---------------------------5-5-5-5-5--7-7-7-7-7-7-7-7--------|

riff played halfway through the chorus: (2x)
e|--4-----------4-4-4-4-4-4-4--4-----4-4-4--2-2-2-2-2-2-2------|
B|-----5-5-5-5--5-5-5-5-5-5-5-----5--5-5-5--4-4-4-4-4-4-4------|
G|-----6-6-6-6--------------------6----------------------------|
D|-------------------------------------------------------------|
A|-------------------------------------------------------------|
E|-------------------------------------------------------------|

Post Chorus:
Teppei (5x)
e|-------------------------------------|
B|-------------------------------------|
G|--9-9--8-8--6-6-6-6--4-/-6-----------|
D|-----------------------/-------------|
A|--7-7--6-6--4-4-4-4--2-/-4-----------|
E|-------------------------------------|

varation
e|--------------------------------------------------------------|
B|--------------------------------------------------------------|
G|--9-9--11-11--9-9-9-9--8-/-9----13-13--11-11--9-9-9-9--8-/-9--|
D|-------------------------/-------------------------------/----|
A|--7-7---9--9--7-7-7-7--6-/-7----11-11---9--9--7-7-7-7--6-/-7--|
E|--------------------------------------------------------------|

then go back into this (1x)
e|-------------------------------------|
B|-------------------------------------|
G|--9-9--8-8--6-6-6-6--4-/-6-----------|
D|-----------------------/-------------|
A|--7-7--6-6--4-4-4-4--2-/-4-----------|
E|-------------------------------------|

Dustin: plays the same four chords...

Solo:


Teppei:                           2 times
e|-------------------------|-------------------------|------------------|
B|-9-7-9-7-9-10-9-7-9-7-6--|9-7-9-7h9p7-10-9-7-9-7-5 |-9-7-9-7--4-5-7---|
G|-9-8-9-8-9-11-9-8-9-8-6--|9-8-9-8h9p8-11-9-8-9-8-6-|-9-8-9-8--5-6-8---|
D|-------------------------|-------------------------|------------------|
A|-------------------------|-------------------------|--last-time-------|
E|-------------------------|-------------------------|------------------|

Dustin:                                2 times
e|-4-2-4--2-4-5-4-2-4-2-0-------|4-2-4--2h4p2-5-4-2-4-2-0|--------------|
B|----------------------------------------------------------------------|
G|----------------------------------------------------------------------|
D|----------------------------------------------------------------------|
A|----------------------------------------------------------------------|
E|----------------------------------------------------------------------|

e|-4-2-4--2h4p2---0-2-0~~---|
B|--------------4-----------|
G|--------------------------|
D|------last-time-----------|
A|--------------------------|
E|--------------------------|

Teppei:
e|---------------------4----4-5-7----------------------|
B|-5-4-----4-5-7-5---5---------------------------------|
G|-----5-6---------------------------------------------|
D|-----------------------------------------------------|
A|-----------------------------------------------------|
E|-----------------------------------------------------|

e|-11p9---12p9----11p9---12p9----11p9---12p9----11p9---12p9-----------|
B|------9------9-------9------9-------9------9-------9----------------|
G|--------------------------------------------------------------------|
D|--------------------------------------------------------------------|
A|--------------------------------------------------------------------|
E|--------------------------------------------------------------------|

e|------9-12-11-9------------------------------9-------------------------|
B|-9-12-----------12-10-9h10p9---------12--7-9-9-------------------------|
G|-----------------------------11-9-11-13--8-8-8--figure out strumming---|
D|------------------------------------------------yourself---------------|
A|-----------------------------------------------------------------------|
E|-----------------------------------------------------------------------|

Dustin:
e|-----9~--------5~--------7~------------------------------------------|
B|---9---------5---------7---------------------------------------------|
G|-6---------2---------4-------then-don't-do-anything-until-next-part--|
D|---------------------------------------------------------------------|
A|---------------------------------------------------------------------|
E|---------------------------------------------------------------------|
							
Teppei:
e|-16-------------16-14------------------------------------------------|
B|----17----------------17-16-17-16------------------------------------|
G|-------18----18-------------------/14-13-11-9-11-13------------------|
D|----------18---------------------------------------------------------|
A|---------------------------------------------------------------------|
E|---------------------------------------------------------------------|

e|---------------------------------------------------------------------|
B|---------------------------------------------------------------------|
G|-13h14p13-11h13p11-9h11p9-8h9p8-8h9p8--------------------------------|
D|--------------------------------------11-9-9-------------------------|
A|---------------------------------------------------------------------|
E|---------------------------------------------------------------------|

e|-12h16p12--------12h16p12--------12h16p12--------12h16p12------------|
B|----------12h16------------12h16----------12h16-----------12h16------|
G|---------------------------------------------------------------------|
D|---------------------------------------------------------------------|
A|-repeat-as-many-times-as-you-have-to---------------------------------|
E|---------------------------------------------------------------------|

Dustin:
e|-12--------------12-11-----------------------------------------------|
B|----14-----------------14-12-14-12----12/14-12----------12-----------|
G|-------13----13--------------------14----------14-13-14--------------|
D|----------14---------------------------------------------------------|
A|---------------------------------------------------------------------|
E|---------------------------------------------------------------------|

e|---------------------------------------------------------------------|
B|-12h14p12--10h12p10--9h10p9--7h9p7--7h9p7----------------------------|
G|------------------------------------------9-8-8----------------------|
D|---------------------------------------------------------------------|
A|---------------------------------------------------------------------|
E|---------------------------------------------------------------------|

e|-9h12p9------9h12p9------9h12p9------9h12p9------9h12p9--------------|
B|--------9h12--------9h12--------9h12--------9h12--------9h12---------|
G|---------------------------------------------------------------------|
D|---------------------------------------------------------------------|
A|---------------------------------------------------------------------|
E|---------------------------------------------------------------------|
Then Dustin doesn't do anything, Only Teppei does the last part of the solo.

Teppei:
then go into this, I know it's not right, but this sounds close enough.
I'm still working on it.
e|-14b-12----------------------------------------------|
B|--------14-13-12-------------------------------------|
G|-----------------14-13-11-13-9-----------------------|
D|-------------------------------11--------------------|
A|-----------------------------------------------------|
E|-----------------------------------------------------|

then end with this: (this is right)
e|-----------------------------------------------------|
B|-----------------------------------------------------|
G|---------------------9h11p9----9h11p9----------------|
D|-----------9-11-9-11--------11--------11-------------|
A|------9-11-------------------------------------------|
E|-9-11------------------------------------------------|

Outro:
Teppei & Dustin: (2x)
e|--------------------------------------------------4------|-end-with-this-|
B|--------------------------------------------------4------|---------------|
G|-6---------------------------6--------------------5------|---6~----------|
D|-6------7------9------6------6------7------9------6------|---6~----------|
A|-4------7------9------6------4------7------9------6------|---4~----------|
E|--------5------7------4-------------5------7------4------|---------------|

Then Teppei does this while Dustin is letting the the last cord played ring
e|-----------------------------------------------------|
B|-----------------------------------------------------|
G|-----------------------------------------------------|
D|-----------------------------------------------------|
A|--7-6-7p6-4~-----------------------------------------|
E|-----------------------------------------------------|
The End.

this tabs pretty much all right except for a few notes in the solo
......and theres both guiatr parts to it so have fun


============================================================================


Текст, аккорды и табулатура для песни "Tnc", исполняет "Thrice".
Используемые в песне аккорды можно найти в разделе Как брать аккорды. Аккорды для шестиструнной гитары. Другие песни можно найти на нашем сайте, воспользовавшись алфавитным указателем вверху страницы.


 
Ошибка в тексте? Выделите ошибку и нажмите Ctrl+Enter