&&&&&&&&&&&&&&&&&&&&&&&&&&&&&
Artist: Thrice             &&
Song: The Red Death        &&
Album: Illusion of reality &&
&&&&&&&&&&&&&&&&&&&&&&&&&&&&&


GUITAR ONE'S PARTS
--------------------
Intro: (7x)
e|-----------------------------------------------------------------|
B|-----------------------------------------------------------------|
G|-----------------------------------------------------------------|
D|---5-7---7-8---5-7---7-8---5-7---7-8---5-7---7-8---5-7---7-8-7-5-|
A|-0-----0-----0-----0-----0-----0-----0-----0-----0-----0---------|
E|-----------------------------------------------------------------|

Intro Cont'd:
e|----------------------------------------------------------------|
B|----------------------------------------------------------------|
G|----------------------------------------------------------------|
D|---5-7---7-8---5-7---7-8---5-7---5-7---5-7---5-7---5-7----5--7-|
A|-0-----0-----0-----0-----0-----0-----0-----0-----0-----0--------|
E|----------------------------------------------------------------|

Verse: (4x)
e|-----------------------------------------------------------------|
B|-----------------------------------------------------------------|
G|-2-2-2-5-5-5-4-4-4-7-7-7-5-5-4-4-0-0-0-5-5-5-4-4-4-7-7-7-5-5-4-4-|
D|-----------------------------------------------------------------|
A|-----------------------------------------------------------------|
E|-----------------------------------------------------------------|
PM ...............................................................

Pre-Chorus:
e|---------------------------------------------------------------------------|
B|---------------------------------------------------------------------------|
G|-2-2-2-14-14-14-7-7-7-10-10-10-10-10-10-10-2-2-2-14-14-14-7-7-7-10-10-10---|
D|-2-2-2-14-14-14-7-7-7-10-10-10-10-10-10-10-2-2-2-14-14-14-7-7-7-10-10-10---|
A|-0-0-0-12-12-12-5-5-5--8--8--8--8--8--8--8-0-0-0-12-12-12-5-5-5--8--8--8---|
E|---------------------------------------------------------------------------|

e|---------------------------------------------------------------------------|
B|---------------------------------------------------------------------------|
G|-10-10-9-9-2-2-2-2-2-5-5-5-10-10-10-10-10-10-10-10-9-9-9-9-9-9-9-9---------|
D|-10-10-9-9-2-2-2-2-2-5-5-5-10-10-10-10-10-10-10-10-9-9-9-9-9-9-9-9---------|
A|--8--8-7-7-0-0-0-0-0-3-3-3--8--8--8--8--8--8--8--8-7-7-7-7-7-7-7-7---------|
E|---------------------------------------------------------------------------|

e|---------------|
B|---------------|
G|---------------|
D|-3-0-2-0-3-2-0-|
A|---------------|
E|---------------|

Chorus
e|---------------------------------------------------------------------------|
B|---------------------------------------------------------------------------|
G|-------------7--7-5--4--5--2--2-5--5------7--7----------------------7--7-5-|
D|-7--7-5--5-5-7--7-5--4--5--2--2-5--5-5--5-7--7-7----------7--7-5--5-7--7-5-|
A|-7--7-5--5-5-5--5-3--2--3--0--0-3--3-5--5-5--5-7-*-*-*--*-7--7-5--5-5--5-3-|
E|-5--5-3--3-3-------------------------3--3------5-5-5-5--5-5--5-3--3--------|
triplet
e|--------------------------------|
B|--------------------------------|
G|-5-4--5--2--2-5--5------7--7----|
D|-5-4--5--2--2-5--5-5--5-7--7-7x-|
A|-3-2--3--0--0-3--3-5--5-5--5-7x-|
E|-------------------3--3------5x-|

2nd Verse: (4x)
e|---------------------------------|
B|---------------------------------|
G|-2-2-2-5-5-5-4-4-4-7-7-7-5-5-4-4-|
D|---------------------------------|
A|---------------------------------|
E|---------------------------------|
PM ...............................

Bridge:
e|--------------------------------------------------------------|
B|---------------------------------------------------0x--0x--0x-|
G|-2--2-2-2-2-2-2-2-2-2-2-2-2-2-2-1-1-1-1-1-1-1-1-1--0x--0x--0x-|
D|--------------------------------------------------------------|
A|--------------------------------------------------------------|
E|--------------------------------------------------------------|

Solo:
e|-------17-------17-------17-------17-------17-------17-------17-------17---|
B|-15h17----15h17----15h17----15h17----15h17----15h17----15h17----15h17------|
G|---------------------------------------------------------------------------|
D|---------------------------------------------------------------------------|
A|---------------------------------------------------------------------------|
E|---------------------------------------------------------------------------|

e|-------17------------------------------------------------------------------|
B|-15h17----15h17p15----15--------13h15p13----13h15p13----13h15p13-----------|
G|-------------------17----14--14----------14----------14--------------------|
D|---------------------------------------------------------------------------|
A|---------------------------------------------------------------------------|
E|---------------------------------------------------------------------------|

e|---------------------------------------------------------------------------|
B|-13h15p13----13h15p13----13h15p13----13h15p13----13h15p13------------------|
G|----------14----------14----------14----------14----------9--9-9-9-7--10---|
D|----------------------------------------------------------x--x-x-x-x---x---|
A|----------------------------------------------------------7--7-7-7-5---8---|
E|---------------------------------------------------------------------------|

e|---------------------------------------------------------------------------|
B|---------------------------------------------------------------------------|
G|-10-10-10-10-9--7--7-7-7-7-7-7-7-7--5--7--9--9--9-9-9-9-9-9-9-13-13-13-13--|
D|--x--x--x--x-x--x--x-x-x-x-x-x-x-x--x--x--x--x--x-x-x-x-x-x-x--x--x--x--x--|
A|--8--8--8--8-7--5--5-5-5-5-5-5-5-5--3--5--7--7--7-7-7-7-7-7-7-11-11-11-11--|
E|---------------------------------------------------------------------------|

e|------------------------------------------------|
B|------------------------------------------------|
G|-13-13-13-13-14-14-14-14-14-14-14-14-17--16--14-|
D|--x--x--x--x--x--x--x--x--x--x--x--x--x---x---x-|
A|-11-11-11-11-12-12-12-12-12-12-12-12-15--14--12-|
E|------------------------------------------------|

Interlude:
e|---------------------------------------------------------------------------|
B|---------------------1-3-1-3/5----1-3-1-3/5----1-3-1-3/5----1-3-1-3/5------|
G|-2~-------2-2x-------------------------------------------------------------|
D|-2~-------2-2x-------------------------------------------------------------|
A|-0~-------0-0x-------------------------------------------------------------|
E|---------------------------------------------------------------------------|

e|------------------0-1-0-1h3----0-1-0-1h3----0-1-0-1h3----0-1-0-1h3---------|
B|-1-3-1-3-5-3-1-------------------------------------------------------------|
G|---------------------------------------------------------------------------|
D|---------------------------------------------------------------------------|
A|---------------------------------------------------------------------------|
E|---------------------------------------------------------------------------|

e|-0-1-0-1-3-1-0--------------------------------------------|
B|----------------------------------------------------------|
G|---------------2x----2x----2x----2x----2x----2x----2x--2x-|
D|---------------2x----2x----2x----2x----2x----2x----2x--2x-|
A|---------------0x----0x----0x----0x----0x----0x----0x--0x-|
E|----------------------------------------------------------|

Outro: (4x)
e|-----------------------------------------|
B|-----------------------------------------|
G|-2-2-2-14-14-14-7-7-7-10-10-10-10-10-9-9-|
D|-2-2-2-14-14-14-7-7-7-10-10-10-10-10-9-9-|
A|-0-0-0-12-12-12-5-5-5--8--8--8--8--8-7-7-|
E|-----------------------------------------|

Outro Cont'd:
e|---------------------------------------------------------------------------|
B|---------------------------------------------------------------------------|
G|-2-2-2-5-5-5-7-7-7-10-10-10-10-10-9-9-2-2-2-5-5-5-7-7-7-10-10-10-10-10-9-9-|
D|-2-2-2-5-5-5-7-7-7-10-10-10-10-10-9-9-2-2-2-5-5-5-7-7-7-10-10-10-10-10-9-9-|
A|-0-0-0-3-3-3-5-5-5--8--8--8--8--8-7-7-0-0-0-3-3-3-5-5-5--8--8--8--8--8-7-7-|
E|---------------------------------------------------------------------------|

e|-------------------------------------------------------------------------|
B|-2-2-2-5-5-5-7-7-7-10-10-10-10-10-10-10-9-9-9-9-9-9-9-9------------------|
G|-2-2-2-5-5-5-7-7-7-10-10-10-10-10-10-10-9-9-9-9-9-9-9-9---------------2x-|
D|-0-0-0-3-3-3-5-5-5--8--8--8--8--8--8--8-7-7-7-7-7-7-7-7-3-0-2-0-3-2-0-2x-|
A|----------------------------------------------------------------------0x-|
E|-------------------------------------------------------------------------|

--------------------
GUITAR TWO'S PARTS
--------------------
Intro:
e|---------------------------------------------------------------------------|
B|---------------------------------------------------------------------------|
G|-2-2x---2-2x---2-2x-2-2x---2-2x---2-2x-5-5x---5-5x---5-5x-5-5x---5-5x------|
D|-2-2x---2-2x---2-2x-2-2x---2-2x---2-2x-5-5x---5-5x---5-5x-5-5x---5-5x------|
A|-0-0x---0-0x---0-0x-0-0x---0-0x---0-0x-3-3x---3-3x---3-3x-3-3x---3-3x------|
E|---------------------------------------------------------------------------|

e|---------------------------------------------------------------------------|
B|---------------------------------------------------------------------------|
G|-5-5x-7-7x---7-7x---7-7x-7-7x---7-7x---7-7x-2-2x---2-2x---2-2x-2-2x---2-2x-|
D|-5-5x-7-7x---7-7x---7-7x-7-7x---7-7x---7-7x-2-2x---2-2x---2-2x-2-2x---2-2x-|
A|-3-3x-5-5x---5-5x---5-5x-5-5x---5-5x---5-5x-0-0x---0-0x---0-0x-0-0x---0-0x-|
E|---------------------------------------------------------------------------|

Intro Cont'd: (2x)
e|--------------------------|
B|--------------------------| 
G|--2~----5~----7~----2~----| you figure out 
D|--2~----5~----7~----2~----| the strum pattern.
A|--0~----3~----5~----0~----|
E|--------------------------|

Verse: (4x)
e|-----------------------------------------------------------------|
B|-----------------------------------------------------------------|
G|-------2-2-2---------------------------2-2-2---------------------|
D|-------------0-0-0-3-3-3-2-2-0-0-------------0-0-0-3-3-3-2-2-0-0-|
A|-0-0-0-----------------------------------------------------------|
E|---------------------------------3-3-3---------------------------|
PM ...............................................................

Pre Chorus: Play Same as Guitar one, except for fill at end:
e|---------------|
B|---------------|
G|---------------|
D|-7-0-5-0-7-5-0-|
A|---------------|
E|---------------|

Chorus: Play same as Guitar One

2nd Verse: (2x)
e|------------------------------------------------------------|
B|------------------------------------------------------------|
G|------------------------------------------------------------|
D|------------------------------------------------------------|
A|-0-0-0-------5-5-5-3-3-3-2-2-3-3-0-0-0-3-3-3-------5-5-5----|
E|-------3-3-3---------------------------------3-3-3--------5-|
PM ..........................................................

Bridge:
e|------------------------------------------------------------|
B|------------------------------------------------------------|
G|------------------------------------------------------------|
D|-3--3-3-3-3-3-3-3-3-3-3-3-3-3-3-2-2-2-2-2-2-2-2--5x--5x--5x-|
A|-3--3-3-3-3-3-3-3-3-3-3-3-3-3-3-2-2-2-2-2-2-2-2--5x--5x--5x-|
E|-1--1-1-1-1-1-1-1-1-1-1-1-1-1-1-0-0-0-0-0-0-0-0--3x--3x--3x-|

Solo:
e|---------------------------------------------------------------------------|
B|---------------------------------------------------------------------------|
G|-------------9--9-9--9-9-9-9-10--10--10-10-10--10-10--10-10-10-10----------|
D|-7--7--7-7-7-9--9-9--9-9-9-9-10--10--10-10-10--10-10--10-10-10-10-7--7-----|
A|-7--7--7-7-7-7--7-7--7-7-7-7--8---8---8--8--8---8--8---8--8--8--8-7--7-----|
E|-5--5--5-5-5------------------------------------------------------5--5-----|

e|---------------------------------------------------------------------------|
B|---------------------------------------------------------------------------|
G|-------------------------------------------------9--9-9-9-7--10------------|
D|-7-7-7-5--5-5--5-5-5-5-3--3--3-3-3--3-3--3-3-3-3-x--x-x-x-x---x------------|
A|-7-7-7-5--5-5--5-5-5-5-3--3--3-3-3--3-3--3-3-3-3-7--7-7-7-5---8------------|
E|-5-5-5-3--3-3--3-3-3-3-1--1--1-1-1--1-1--1-1-1-1---------------------------|

e|---------------------------------------------------------------------------|
B|---------------------------------------------------------------------------|
G|-10-10-10-10-9--7--7-7-7-7-7-7-7-7--5--7--9--9--9-9-9-9-9-9-9-13-13-13-13--|
D|--x--x--x--x-x--x--x-x-x-x-x-x-x-x--x--x--x--x--x-x-x-x-x-x-x--x--x--x--x--|
A|--8--8--8--8-7--5--5-5-5-5-5-5-5-5--3--5--7--7--7-7-7-7-7-7-7-11-11-11-11--|
E|---------------------------------------------------------------------------|

e|------------------------------------------------|
B|------------------------------------------------|
G|-13-13-13-13-14-14-14-14-14-14-14-14-17--16--14-|
D|--x--x--x--x--x--x--x--x--x--x--x--x--x---x---x-|
A|-11-11-11-11-12-12-12-12-12-12-12-12-15--14--12-|
E|------------------------------------------------|

Interlude:
e|---------------------------------------------------------------------------|
B|---------------------------------------------------------------------------|
G|-2~------------------------------------------------------------------------|
D|-2~----------5-7---7-8---5-7---7-8---5-7---7-8---5-7---7-8---5-7---7-8-7-5-|
A|-0~--------0-----0-----0-----0-----0-----0-----0-----0-----0-----0---------|
E|---------------------------------------------------------------------------|

e|---------------------------------------------------------------------------|
B|---------------------------------------------------------------------------|
G|---------------------------------------------------------------------------|
D|---7-9---9-10---7-9---9-10---7-9---9-10---7-9---9-10---7-9---9-10-9-7---10-|
A|-0-----0------0-----0------0-----0------0-----0------0-----0----------0----|
E|---------------------------------------------------------------------------|

e|---------------------------------------------------------------------------|
B|---------------------------------------------------------------------------|
G|---------------------------------------------------------------------------|
D|--12---12-14---10-12---12-14---10-12---12-14---10-12---12-14---10-12---12--|
A|-----0-------0-------0-------0-------0-------0-------0-------0-------0-----|
E|---------------------------------------------------------------------------|

e|-----------------------------------------------------|
B|-----------------------------------------------------|
G|----------2x----2x----2x----2x----2x----2x----2x--2x-|
D|-14-12-10-2x----2x----2x----2x----2x----2x----2x--2x-|
A|----------0x----0x----0x----0x----0x----0x----0x--0x-|
E|-----------------------------------------------------|
Outro: Play same as Guitar One

Questions? [email protected]


Текст, аккорды и табулатура для песни "The Red Death", исполняет "Thrice".
Используемые в песне аккорды можно найти в разделе Как брать аккорды. Аккорды для шестиструнной гитары. Другие песни можно найти на нашем сайте, воспользовавшись алфавитным указателем вверху страницы.


 
Ошибка в тексте? Выделите ошибку и нажмите Ctrl+Enter