Band: Thrice
Title: The Artist in the Ambulance
Album: The Artist in the Ambulance
Tabber: Sqweeky
Submitted By: Stand Alone ([email protected])
Tuning:Db Ab Db Gb

Intro
|---------------------------|
|---------------------------|
|---------------------------|
|---------------------------|

Verse x2 
|---------------------------------------------------------------------| 
|---------------------------------------------------------------------| 
|-------------------55555555555555--00000000000000--7777777777777777--| 
|-4444444444444444----------------------------------------------------|

Chorus (And I Hope...)
|------------------------------------------------------|
|------------------------------------------------------|
|------------------------------------------------------|
|---0-----0-----4-----2-------0-----0-----4--2--0------|

Bridge
|--------------------------------------------------------
|--------------------------------------------------------
|--------------------------------------------------4-----
|---4-----4-----0-----0----------4-----4-----2-----------

End
|------------------------------------------------------|
|------------------------------------------------------|
|------------------------------------------------------|
|---4--2--0-----4--2--0-----4--2--0-----0-----0-----0--|


Текст, аккорды и табулатура для песни "The Artist In The Ambulance", исполняет "Thrice".
Используемые в песне аккорды можно найти в разделе Как брать аккорды. Аккорды для шестиструнной гитары. Другие песни можно найти на нашем сайте, воспользовавшись алфавитным указателем вверху страницы.


 
Ошибка в тексте? Выделите ошибку и нажмите Ctrl+Enter