Key:
o _ Repeat
o
h - Hammer-on
p - Pull-off
~ - Sustain
/ - Slide up
 - Slide down
.p.m. - Palm Mute

 Drop D Tuning

Guitar1

Intro
e|----------------------------------------------------------------------------------------|
B|------------------------------------------------------------------------10--------------|
G|-----------------6-----6h7p6-----------------6-----6h7p6-----6h7h9p6h7------9p6h7p6-----|
D|--------------7-----7---------7~~~~-------7-----7---------7--------------------------7--|
A|---------7h9-------------------------7h9------------------------------------------------|
E|--0~~~~------------------------------0--------------------------------------------------|

e|--------------------------------------------------------------------------------|
B|--------------------------------------------------------------------------------|
G|--------------------------------------------------------------------------------|
D|--6-6h7p6p4h6----------6--------4-----------4h6p4-------------6--------7--------|
A|--------------------5--------5-----5-----5---------5/7-----4-----4--------4-----|
E|---------------0~~--------0-----------0-----------------4-----------4--------4--|

e|-----------------------------------------------------------------------------|
B|-----------------------------------------------------------------------------|
G|-----------------------------------------------------------------------------|
D|--7-7h9p7--6--7--------6-----------4--------7------------------7-------9-----|
A|--------------------5-----5-----5--------9-----7h9p7--4-----4-------------7--|
E|-----------------0-----------0--------0------------------4--------4/6--------|

e|-------------------------------------------------------------5------------|
B|----------------------------------------------------------/7-7--5h7p5-----|
G|------------------9----------------------------------------------------6--|
D|-------9--------9-9h11p9--7/9--------6--------4---------------------------|
A|----------7-----------------------5-----5--------5-----5------------------|
E|--4/6--------6-----------------0-----------0--------0---------------------|

e|-----------------------------------------------------------------------------------|
B|-----------------------------------------------------------------------------------|
G|-----------------4--------4-4h6p4---------------------------------9~---------------|
D|--------7----------------------------------12--------11-------11-11h12p11p9h11-----|
A|-----4-----4--------4-------------------9------9---------9-------------------------|
E|--4-----------4--------4-----------4/9------------9---------9-------------------0~~|

Verse1
e|------------------------------------------------------------------------------|
B|------------------------------------------------------------------------------|
G|--13-13-13-13-13-13--11-11-11-11-11-11--13-13-13-13-13-13--14-14-14-14-14-14--|
D|------------------------------------------------------------------------------|
A|--11-11-11-11-11-11---9--9--9--9--9--9--11-11-11-11-11-11--12-12-12-12-12-12--|
E|------------------------------------------------------------------------------|

e|-------------------------------------------------------------------------------|
B|-------------------------------------------------------------------------------|
G|--13-13-13-13-13-13--11-11-11-11-11-11--14-14-14-14--16-16-16-16--13-13-13-13--|
D|-------------------------------------------------------------------------------|
A|--11-11-11-11-11-11---9--9--9--9--9--9--12-12-12-12--14-14-14-14--11-11-11-11--|
E|-------------------------------------------------------------------------------|

e|------------------------------------------------------------------------|
B|------------------------------------------------------------------------|
G|--16-16-16-16-16-16--13-13-13-13-13-13--14-14-14-14-14-14--19-19-19-19--|
D|------------------------------------------------------------------------|
A|--14-14-14-14-14-14--11-11-11-11-11-11--12-12-12-12-12-12--17-17-17-17--|
E|------------------------------------------------------------------------|

e|------------------------------------------------------------------------|
B|------------------------------------------------------------------------|
G|--19-19--18-18-18-18-18-18-18-18--16-16-16-16-16-16--14-14-14-14-14-14--|
D|------------------------------------------------------------------------|
A|--17-17--16-16-16-16-16-16-16-16--14-14-14-14-14-14--12-12-12-12-12-12--|
E|------------------------------------------------------------------------|

Chorus
e|--4h5p4-----4h5--------4h5p4-----4h5--------4h5p4-----4h5--------|
B|---------5----------5---------5----------5---------5----------5--|
G|-----------------6--------------------6--------------------6-----|
D|-----------------------------------------------------------------|
A|-----------------------------------------------------------------|
E|-----------------------------------------------------------------|

e|------------5-----5h6h8p6--5-----5---------------------------------------|
B|--6p5--6h8-----8--------------6-----8p6h8--6p5--6h8--6p5--6h8--6p5--6h8--|
G|-------------------------------------------------------------------------|
D|-------------------------------------------------------------------------|
A|-------------------------------------------------------------------------|
E|-------------------------------------------------------------------------|

Verse2
e|-------------------------------------------------------------------------|
B|-------------------------------------------------------------------------|
G|--9-9-9-9-9-9--7-7-7-7-7-7--4-4-4-4-4-4--6-6-6-6-6-6--13-13-13-13-13-13--|
D|-------------------------------------------------------------------------|
A|--7-7-7-7-7-7--5-5-5-5-5-5--2-2-2-2-2-2--4-4-4-4-4-4--11-11-11-11-11-11--|
E|-------------------------------------------------------------------------|

e|-------------------------------------------------------------------------------------|
B|-------------------------------------------------------------------------------------|
G|--11-11-11-11-11-11--13-13-13-13-13-13--11-11-11-11-11-11--4-4-4-4-4-4--6-6-6-6-6-6--|
D|-------------------------------------------------------------------------------------|
A|---9--9--9--9--9--9--11-11-11-11-11-11---9--9--9--9--9--9--2-2-2-2-2-2--4-4-4-4-4-4--|
E|-------------------------------------------------------------------------------------|

e|------------------------------------------------------------------------------|
B|------------------------------------------------------------------------------|
G|--13-13-13-13-13-13--11-11-11-11-11-11--13-13-13-13-13-13--16-16-16-16-16-16--|
D|------------------------------------------------------------------------------|
A|--11-11-11-11-11-11---9--9--9--9--9--9--11-11-11-11-11-11--14-14-14-14-14-14--|
E|------------------------------------------------------------------------------|

e|------------------------------------------------------------------|
B|------------------------------------------------------------------|
G|--18-18-18-18-18-18--16-16-16-16--14-14-14-14--13-13-13-13-13-13--|
D|------------------------------------------------------------------|
A|--16-16-16-16-16-16--14-14-14-14--12-12-12-12--11-11-11-11-11-11--|
E|------------------------------------------------------------------|

Interlude1
e|--------------5-----4-----------------5-----4-----------------5-----4-----|
B|-----5-----5-----5-----5-----5-----5-----5-----5-----5-----5-----5-----5--|
G|--6-----6-----------------6-----6-----------------6-----6-----------------|
D|--------------------------------------------------------------------------|
A|--------------------------------------------------------------------------|
E|--------------------------------------------------------------------------|
    ..p.m..                 ..p.m..                 ..p.m..
 
Bridge
e|---------------------------------------------------------------------------------------|
B|---------------------------------------------------------------------------------------|
G|o--------------------------------------------------------------------------------------|
D|o-------6-----6p0-------------6-------6p0-----------6-----6p0-------------6-------6p0--|
A|---------------------------------------------------------------------------------------|
E|---0-0-----0-------0-0-0-0-0-----0-0-------0-0-0-0-----0-------0-0-0-0-0-----0-0-------|
     p.m    p.m      ...p.m...     p.m       ..p.m..    p.m     ...p.m...      p.m

e|---------------------------------------------------------------------------------------|
B|---------------------------------------------------------------------------------------|
G|--------------------------------------------------------------------------------------o|
D|-----------6-----6h7p6p4-------6-----6h7p6p4-------6-----6h7p6p4-------6-----6h7p6p4--o|
A|---------------------------------------------------------------------------------------|
E|--0-0-0-0-----0-----------0-0-----0-----------0-0-----0-----------0-0-----0------------|
    ..p.m..    p.m          p.m    p.m          p.m    p.m          p.m    p.m

e|-----------------------------------------------------------------------------|
B|-----------------------------------------------------------------------------|
G|o-------4h5h7p5p4---------4h5h7p5p4---------4h5h7p5p4---------4h5h7p5p4-----o|
D|o--5h7-------------7p5h7-------------7p5h7-------------7p5h7-------------7--o|
A|-----------------------------------------------------------------------------|
E|-----------------------------------------------------------------------------|

Interlude2
e|--------------------------------------------------------|
B|--------------------------------------------------------|
G|o------------------------------------------------------o|
D|o--0-0-0-0-0-0--2-2-2-2-2-2--3-3-3-3-3-3--5-5-5-5-5-5--o|
A|---0-0-0-0-0-0--2-2-2-2-2-2--3-3-3-3-3-3--5-5-5-5-5-5---|
E|---0-0-0-0-0-0--2-2-2-2-2-2--3-3-3-3-3-3--5-5-5-5-5-5---|
  ...........................p.m..........................

Outro
e|----------------------------------------------------------------9p7--5p4h5---------------|
B|--9h10p9----------7h9--10h12p10--9h10p9-9h10p9----------7h9h10--------------9-10---------|
G|----------11------------------------------------11--------------------------------11-----|
D|--------------11------------------------------------11--------------------------------11-|
A|-----------------------------------------------------------------------------------------|
E|-----------------------------------------------------------------------------------------|

e|--------------------------7h9p7--4h5-5h7p5--4h5h7p5p4---|
B|---7h9--10h12p10--9h10p9--------------------------------|
G|o------------------------------------------------------o|
D|o------------------------------------------------------o|
A|--------------------------------------------------------|
E|--------------------------------------------------------|

e|--7h9p7-----------7p5--4--5h7p5-------7-7h9p7p4h5-5h7p5--4h5/7--5p4-4h5~~~~--|
B|---------9p10-10-----------------9-9-----------------------------------------|
G|-----------------------------------------------------------------------------|
D|-----------------------------------------------------------------------------|
A|-----------------------------------------------------------------------------|
E|-----------------------------------------------------------------------------|


Текст, аккорды и табулатура для песни "So Strange I Remember You", исполняет "Thrice".
Используемые в песне аккорды можно найти в разделе Как брать аккорды. Аккорды для шестиструнной гитары. Другие песни можно найти на нашем сайте, воспользовавшись алфавитным указателем вверху страницы.


 
Ошибка в тексте? Выделите ошибку и нажмите Ctrl+Enter