----------------------------------------------------------------------------
                SO STRANGE I REMEMBER YOU - Thrice
----------------------------------------------------------------------------

By:  Marcel([email protected])


DROP C# TUNING!

~   - let ring out
... - palm mute
/  - slide
h   - hammer on
p   - pull off
?   - I'm lost
6x
4x  - mute after strumming
4x

Intro:
D#|-------------------------------------------------------------------------|
A#|------------------------------------------------------10-----------------|
F#|----------6---6h7p6-------------6---6h7p6---6h7-9-6h7----9-6h7p6---------|
C#|--------7---7-------7~--------7---7-------7----------------------7~------|
G#|----7/9-------------------7h9--------------------------------------------|
C#|0~------------------------0----------------------------------------------|

Intro Cont'd:
D#|-------------------------------------------------------------------------|
A#|-------------------------------------------------------------------------|
F#|-------------------------------------------------------------------------|
C#|6-6h7p6-4-6------6-----4-------4h6p4---------6-----7------7-7h9p7-6-7----|
G#|---------------5-----5---5---5-------5/7---4---4------4------------------|
C#|------------0~-----0-------0-------------4-------4------4----------------|

Intro Cont'd:
D#|-------------------------------------------------------------------------|
A#|-------------------------------------------------------------------------|
F#|----------------------------------------------9--------------------------|
C#|----6-----4-------7-------------7-----9-----9-9h11p9-7/9-----6-----4-----|
G#|--5---5-----5---9---7h9p7-4---4---------7------------------5---5-----5---|
C#|0-------0-----0-------------4-----4/6-----6--------------0-------0-----0-|

Intro Cont'd:
D#|---5----------------------------------------------------------------------|
A#|/7-7-5h7p5----------------------------------------------------------------|
F#|-----------6-----------4-----4-4h6p4-------------------------9~--------11-|
C#|-----------------7-------------------------12-----11-----11-11h12p11-9----|
G#|---------------4---4-----4---------------9----9------9--------------------|
C#|-------------4-------4-----4---------4/9--------9------9------------------|

Intro Cont'd:
D#|--------------|
A#|--------------|
F#|--------------|
C#|--------------|
G#|--------------|
C#|---0~---------|

Verse:  (You can figure out strumming)
D#|--------------------------------------------------------------------------|
A#|--------------------------------------------------------------------------|
F#|13--11--13--14--13--11--14--16--13--11--13--14--19--18--19--18------------|
C#|-x--x----x---x---x---x---x---x---x---x---x---x---x---x---x---x------------|
G#|11--9---11--12--11---9--12--14--11---9--11--12--17--16--17--16------------|
C#|--------------------------------------------------------------------------|

Chorus:  (Repeat lots)                                   (Fades out)
D#|4h5p4---4h5-----------|--------5---5h6-8-6-5---5-------|-----------------|
A#|------5-------5-------|6-5-6h8---8-----------6---8-6-8-|-6p5-6h8---------|
F#|------------6---------|--------------------------------|-----------------|
C#|----------------------|--------------------------------|-----------------|
G#|----------------------|--------------------------------|-----------------|
C#|----------------------|--------------------------------|-----------------|

Next Part:  (You can figure out strumming)
D#|-------------------------------------------------------------------------|
A#|-------------------------------------------------------------------------|
F#|9--7--4--6--13---11---13--11---4---6---13---11---13---16---14--13-14-13--|
C#|x--x--x--x---x----x----x---x---x---x----x----x----x----x----x---x--x--x--|
G#|7--5--2--4--11----9---11---9---2---4---11----9---11---14---12--11-12-11--|
C#|-------------------------------------------------------------------------|

Interlude:  (Repeat lots)
D#|------0-5p0-4p0-------|
A#|--5-------------------|
F#|6---6-----------------|
C#|----------------------|
G#|----------------------|
C#|----------------------|
   .....

Bridge:  (2x)
D#|-------------------------------------------------------------------------|
A#|-------------------------------------------------------------------------|
F#|-------------------------------------------------------------------------|
C#|----6---6p0-------------6-----6p0----------6---6p0-------------6-----6p0-|
G#|-------------------------------------------------------------------------|
C#|0-0---0-----0--0-0-0--0---0-0-----0-0--0-0---0-----0--0-0-0--0---0-0-----|
   ...   .     .  .....  .   ...     ...  ...   .     .  .....  .   ...

Bridge Cont'd:
D#|-------------------------------------------------------------------------|
A#|-------------------------------------------------------------------------|
F#|-------------------------------------------------------------------------|
C#|---------6---6h7-6p4-----6---6h7-6p4-----6---6h7-6p4-----6---6h7-6p4-----|
G#|-------------------------------------------------------------------------|
C#|0-0--4-4---4---------4-4---4---------4-4---4---------4-4---4-------------|
   ...  ...   .         ...   .         ...   .         ...   .

End of Bridge:      (4x)              (4x)              (Ring out)
D#|----------------|-----------------|-----------------|--------------|
A#|----------------|-----------------|-----------------|--------------|
F#|----------------|-----4-5-7-5-4---|-------5-7-5-----|------7~------|
C#|6h7-6p4-6h7-6p4-|-5-7-----------7-|-5-7-8-------8-7-|------x-------|
G#|----------------|-----------------|-----------------|------5~------|
C#|----------------|-----------------|-----------------|--------------|

Little Middle Thing:  (Too hard to hear)

Build Up:  (4x)  (You can figure out strumming)
D#|-----------------------|
A#|-----------------------|
F#|-----------------------|
C#|-----------------------|
G#|0--2--3--5-------------|
C#|0--2--3--5-------------|
   ..........

Outro:  (4x)
D#|4h5p4-2---2-4-5-7-5-4-5-4-4h5p4-2---2-4-5-9-7-5-4-5-4h5p4-2---2-4-5-7-5-4-|
A#|--------2-------------------------2-------------------------2-------------|
F#|--------------------------------------------------------------------------|
C#|--------------------------------------------------------------------------|
G#|--------------------------------------------------------------------------|
C#|--------------------------------------------------------------------------|

Outro Cont'd
D#|-5----

Outro Cont'd:
D#|4-7h9p7-4-5-5h7p5-4-5-7-5-4----|
A#|-------------------------------|
F#|-------------------------------|
C#|-------------------------------|
G#|-------------------------------|
C#|-------------------------------|

Outro Cont'd:  (Very last bit of craziness)
D#|7h9p7-4-5-5h7p5-4-5-7-5-4-4/7-7h9p7-4-5-5h7p5-4-5-7-5-4-5-5~-----|
A#|-----------------------------------------------------------------|
F#|-----------------------------------------------------------------|
C#|-----------------------------------------------------------------|
G#|-----------------------------------------------------------------|
C#|-----------------------------------------------------------------|


Текст, аккорды и табулатура для песни "So Strange I Remember You", исполняет "Thrice".
Используемые в песне аккорды можно найти в разделе Как брать аккорды. Аккорды для шестиструнной гитары. Другие песни можно найти на нашем сайте, воспользовавшись алфавитным указателем вверху страницы.


 
Ошибка в тексте? Выделите ошибку и нажмите Ctrl+Enter