-------------------------------------------------------------------------------
                  OPAQUE (Acoustic) - Thrice
--------------------------------------------------------------------------------
By:  Gary([email protected])
     Greg([email protected]) 

RYTHYM GUITAR's PART:
---------------------
repeat for days...(figure out strum pattern)
e|--7~--------5~--------3~--------2~--------|
B|--7~--------5~--------3~--------2~--------|
G|--7~--------6~--------4~--------3~--------|
D|--9~--------7~--------5~--------4~--------|
A|--9~--------7~--------5~--------4~--------|
E|--7~--------5~--------3~--------2~--------|

GUITAR 1'S PARTS:
-----------------

1ST PART (2x):
e|---------------------------------------------------------------------------|
B|--------3---5-3-2---------------2-----2-3---5-3-2---------------------2-3--|
G|4-3-4-6---4-------4-3-0-----------2-4-----4-------4-3-0---------4-0-4-----4|
D|------------------------4-2-0---------------------------4-2-0--------------|
A|------------------------------4-------------------------------4------------|
E|---------------------------------------------------------------------------|

e|---------------------------------------------------------------------------|
B|5-3-2-----------------------2---3-2-0--------------------------------------|
G|------4-3-0---------3---3-4---3---------3---3h3p4---3----------------------|
D|------------4-2-0-----4---------------4---4-------4------------------------|
A|------------------4--------------------------------------------------------|
E|---------------------------------------------------------------------------|

NEXT PART (2x):
e|----------------------2-----------------------2-------3-------5-------7----|
B|------3-------5---------------3-------5------------------------------------|
G|4-3-4---4-3-4---4-3-4---4-3-4---4-2-4---4-2-4---4-2-4---4-2-4---7-6-7---7-6|
D|---------------------------------------------------------------------------|
A|---------------------------------------------------------------------------|
E|---------------------------------------------------------------------------|

                       1st time, end with:
e|--9-------10--------|--10/12-10-9-10-9----9-----------|
B|--------------------|------------------12---12-11v----|
G|7---9-7-9----9-7-9--|---------------------------------|
D|--------------------|---------------------------------|
A|--------------------|---------------------------------|
E|--------------------|---------------------------------|

2nd time, end with:

e|10-10/12-10-9-10-12-12^-12h13-12-10-9--9-|
B|-----------------------------------------|
G|-----------------------------------------|
D|-----------------------------------------|
A|-----------------------------------------|
E|-----------------------------------------|

Solo:

e|---------------------------------------------------------------------------|
B|--3---3---5p3p2---3----------3---3---5p3p2---3---5^-5^-5^-5h6p5-3---3------|
G|4---4---4-------4---4-2-4--4---4---4-------4---4------------------4---4-2-4|
D|---------------------------------------------------------------------------|
A|---------------------------------------------------------------------------|
E|---------------------------------------------------------------------------|

e|---------------------------------------|
B|---------------------------------------|
G|4-4-4-4-4h6p4-3---3--3-3/4-4-4-4-4/6-6-|
D|----------------4----------------------|
A|---------------------------------------|
E|---------------------------------------|

GUITAR 2'S PARTS:
-----------------
e|------0-2---3-2-0---------------0-----0-2---3-2-0---------------------0-2--|
B|3-2-3-----3-------3-2-0-----------2-3-----3-------3-2-0---------3---3-----3|
G|------------------------2-0-----------------------------2-0-------4--------|
D|----------------------------4-2-----------------------------4-2------------|
A|---------------------------------------------------------------------------|
E|---------------------------------------------------------------------------|

e|3-2-0---------------------------2-0----------------------------------------|
B|------3-2-0---------2---2-3-5-2-----3---2---2h3p2---2----------------------|
G|------------2-0-------3---------------3---3-------3------------------------|
D|----------------4-2--------------------------------------------------------|
A|---------------------------------------------------------------------------|
E|---------------------------------------------------------------------------|

e|----------------------5-----------------------5-------7-------9---------10-|
B|------7-------8---------------7-------8------------------------------------|
G|7-6-7---7-6-7---7-6-7---7-6-7---7-6-7---7-6-7---7-6-7---7-6-7---11-9-11----|
D|---------------------------------------------------------------------------|
A|---------------------------------------------------------------------------|
E|---------------------------------------------------------------------------|

e|--------12----------14----------14-15-14-12-14-12-10-12-10-9v--------------|
B|---------------------------------------------------------------------------|
G|11-9-11----12-11-12----12-11-12--------------------------------------------|
D|---------------------------------------------------------------------------|
A|---------------------------------------------------------------------------|
E|---------------------------------------------------------------------------|

===============================================================================


Текст, аккорды и табулатура для песни "Opaque Acoustic", исполняет "Thrice".
Используемые в песне аккорды можно найти в разделе Как брать аккорды. Аккорды для шестиструнной гитары. Другие песни можно найти на нашем сайте, воспользовавшись алфавитным указателем вверху страницы.


 
Ошибка в тексте? Выделите ошибку и нажмите Ctrl+Enter