----------------------------------------------------------------------------
			     Opaque - Thrice
----------------------------------------------------------------------------
Tabbed by: moggs
Email: [email protected]

Tuning: Standard

*=ring out 
x=palm mute 
h=hammer on 
p=pull off 
`=slide 
  
INTRO Part 1   
|-----------------------------------------------------------| 
|--------2-3---5-3-2----------------------------------------|
|--4-3-4-----4-------4-3-0----------2---0-2-3-0-5-3-2-------|
|--------------------------4-2-0------2---------------4-3-0-|
|--------------------------------4--------------------------|
|-----------------------------------------------------------|
  
|-----------------------------------------------------------| 
|-----------------2-3---5-3-2----------------------------3--|
|-----------4-0-4-----4-------4-3-0----------3---3-4-6-3----|
|--4-2-0----------------------------4-2-0------4------------|
|--------4--------------------------------4-----------------|
|-----------------------------------------------------------|
  
|-----------------------------------------------------------| 
|-----------------------------------------------------------|
|--6-4-3-3h4p3---3------------------------------------------|
|--------------4--------------------------------------------|
|-----------------------------------------------------------|
|-----------------------------------------------------------|
  
play through twice 
    
INTRO Part 2   
|------------------------2-----------------------2-------3--| 
|--------3-------5---------------3-------5------------------|
|--4-3-4---4-3-4---4-3-4---4-3-4---4-3-4---4-3-4---4-3-4----|
|-----------------------------------------------------------|
|-----------------------------------------------------------|
|-----------------------------------------------------------|
   x x x   x x x   x x x   x x x   x x x   x x x   x x x
  
  
|--------5-------7-------9-------10-------10`12-10-9-10-9-7-| 
|-----------------------------------------------------------|
|--4-3-4---7-6-7---7-6-7---9-7-9----9-7-9-------------------|
|-----------------------------------------------------------|
|-----------------------------------------------------------|
|-----------------------------------------------------------| 
   x x x   x x x   x x x   x x x    x x x 
  
  
|--9-7-6-2--------------------------------------------------| 
|-----------------------------------------------------------|
|-----------------------------------------------------------|
|-----------------------------------------------------------|
|-----------------------------------------------------------|
|-----------------------------------------------------------| 
  
play through twice, but on the second time, stop at the high e(1st string, 12th 
fret) and ring out 
  
BRIDGE   
|-----------------------------------------------------------| 
|-----------------------------------------------------------|
|-----------------------------------------------------------|
|------7-9-7-6-----911-9-7-----6-7-6------11-1211-12--------|
|--9-9-5-7-5-4-5-5-7-9-7-5-3-3-4-5-4-7-4-4-9-10-9-7---------|
|--7-7---------3-3---------5-5-------5-2-2------------------|
  
play twice
  
PRE-VERSE   
|-----------------------------------------------------------| 
|-----------------------------------------------------------|
|--7-7-7--9-7-6--7-7-7-11-9-7--6-6-6--7-6-4--6-6-6--12-11-9-|
|-----------------------------------------------------------|
|--5-5-5--7-5-4--5-5-5--9-7-5--4-4-4--5-4-2--4-4-4--10--9-7-|
|-----------------------------------------------------------| 
  
|-----------------------------------------------------------| 
|-----------------------------------------------------------|
|--7-7-7--9-7-6--7-7-7-11-9-7--6-6-6--7-6-4--2-2-2--2-2-2---|
|-----------------------------------------------------------|
|--5-5-5--7-5-4--5-5-5--9-7-5--4-4-4--5-4-2--4-4-4--4-4-4---|
|-----------------------------------------------------------|
  
|-----------------------------------------------------------| 
|-----------------------------------------------------------|
|--4-4-4--4-4-4---------------------------------------------|
|-----------------------------------------------------------|
|--2-2-2--2-2-2---------------------------------------------|
|-----------------------------------------------------------|
    
VERSE   
|-----------------------------------------------------------| 
|-----------------------------------------------------------|
|---------------4-4-4--6-7-9-11-11-11--9-9-9--7-7-7--7-7-7--|
|--------4-2------------------------------------------------|
|--2-0-------4--2-2-2--4-5-7--9--9--9--7-7-7--5-5-5--5-5-5--|
|------3----------------------------------------------------| 
  
|-----------------------------------------------------------| 
|-----------------------------------------------------------|
|--6-6-6---6-6-6--4-4-4--12-11-9--7-7-7--9-9-9-11-11-11-----|
|-----------------------------------------------------------| 
|--4-4-4---4-4-4--2-2-2--10--9-7--5-5-5--7-7-7--9--9--9-----|
|-----------------------------------------------------------|
  
|-----------------------------------------------------------| 
|-----------------------------------------------------------|
|-11-12-11--9-9-9--6-6-6--4-4-4--6-7-9-11-11-11--9-9-9------|
|-----------------------------------------------------------|
|--9-10--9--7-7-7--4-4-4--2-2-2--4-5-7--9--9--9--7-7-7------|
|-----------------------------------------------------------| 
  
|-----------------------------------------------------------| 
|-----------------------------------------------------------|
|--7-7-7--7-7-7--6-6-6--6-6-6--4-4-4--4-4-4-----------------|
|-----------------------------------------------------------|
|--5-5-5--5-5-5--4-4-4--4-4-4--2-2-2--2-2-2-----------------|
|-----------------------------------------------------------| 
  
play through twice 
  
CHORUS   
|-----------------------------------------------------------| 
|-----------------------------------------------------------|
|--5-5-5-5--7-7-7--7-7-7--12-12-12-11-11-11--9-9-9--9-9-9---|
|-----------------------------------------------------------|
|--3-3-3-3--5-5-5--5-5-5--10-10-10--9--9--9--7-7-7--7-7-7---|
|-----------------------------------------------------------| 
  
|-----------------------------------------------------------| 
|-----------------------------------------------------------|
|--7-7-7--6-6-6--9-9-9--9-9-9--7-7-7--6-6-6--4-4-4--4-4-4---|
|-----------------------------------------------------------|
|--5-5-5--4-4-4--7-7-7--7-7-7--5-5-5--4-4-4--2-2-2--2-2-2---|
|-----------------------------------------------------------|
  
|-----------------------------------------------------------| 
|-----------------------------------------------------------|
|--4-4-4--4-4-4--6-6-6--6-6-6--6-6-6--6-6-6-11-11-11-11-11-11
|-----------------------------------------------------------|
|--2-2-2--2-2-2--4-4-4--4-4-4--4-4-4--4-4-4--9--9--9--9--9--9
|-----------------------------------------------------------|
  
|-----------------------------------------------------------| 
|-----------------------------------------------------------|
|--9-9-9--9-9-9--7-7-7--7-7-7--7-7-7--7-7-7--9-9-9--9-9-9---|
|-----------------------------------------------------------|
|--7-7-7--7-7-7--5-5-5--5-5-5--5-5-5--5-5-5--7-7-7--7-7-7---|
|-----------------------------------------------------------|
  
|-----------------------------------------------------------| 
|-----------------------------------------------------------|
|--6-6-6--6-6-6---------------------------------------------|
|-----------------------------------------------------------|
|--4-4-4--4-4-4---------------------------------------------|
|-----------------------------------------------------------|
  
PRE-VERSE 
  
VERSE 
  
CHORUS 
  
OUTRO   
|-----------------------------------------------------------| 
|-----------------------------------------------------------|
|--7-7-7--7-7-7--7-7-7--7-7-7--7-7-7--7-7-7--7-7-7--7-7-7---|
|-----------------------------------------------------------|
|--5-5-5--5-5-5--5-5-5--5-5-5--5-5-5--5-5-5--5-5-5--5-5-5---|
|-----------------------------------------------------------| 
  
|-----------------------------------------------------------| 
|-----------------------------------------------------------|
|--9-9-9--9-9-9--9-9-9--9-9-9--9-9-9--9-9-9-11-11--9-9------|
|-----------------------------------------------------------|
|--7-7-7--7-7-7--7-7-7--7-7-7--7-7-7--7-7-7--9--9--7-7------|
|-----------------------------------------------------------| 
  
play twice   
|-----------------------------------------------------------| 
|-----------------------------------------------------------|
|--7-7-7--7-7-7--7-7-7--7-7-7--7-7-7--7-7-7--7-7-7--7-7-7---|
|-----------------------------------------------------------|
|--5-5-5--5-5-5--5-5-5--5-5-5--5-5-5--5-5-5--5-5-5--5-5-5---|
|-----------------------------------------------------------|
  
|-----------------------------------------------------------| 
|-----------------------------------------------------------|
|-11-11-11-11-11-11-12-12-12-11-11-11--9-9-9--9-9-9--12-12--|
|-----------------------------------------------------------|
|--9--9--9--9--9--9-10-10-10--9--9--9--7-7-7--7-7-7--10-10--|
|-----------------------------------------------------------|
  
|-----------------------------------------------------------| 
|-----------------------------------------------------------|
|-11-9--7********--6********--------------------------------|
|-----------------------------------------------------------|
|--9-7--5********--4********--------------------------------|
|-----------------------------5****************************-|

============================================================================


Текст, аккорды и табулатура для песни "Opaque", исполняет "Thrice".
Используемые в песне аккорды можно найти в разделе Как брать аккорды. Аккорды для шестиструнной гитары. Другие песни можно найти на нашем сайте, воспользовавшись алфавитным указателем вверху страницы.


 
Ошибка в тексте? Выделите ошибку и нажмите Ctrl+Enter