1/2 step down drop c#
(i didnt take the time to put the right rythm, figure it out yourself)

Intro (gtr 1)
  over and over    then....
eb|--0-0-0-0-0-0-|--0-0-0-0-0-0-0-0-0-0-0-0-0-0-0--0--0--0-0-0-0-0-0-0--0--0-|
Bb|-4-4-4-4-4-4--|---5-5-5-7-7-7-9-9-9-9-7-7-7-7-10-10-10-9-9-9-7-7-7-12-12--|
Gb|--------------|-----------------------------------------------------------|
Db|--------------|-----------------------------------------------------------|
Ab|--------------|-----------------------------------------------------------|
C#|--------------|-----------------------------------------------------------|
                   ....'cause im beginning to feel numb.....

eb|---0--0--0--0-0-0-0-0-0-0-0-0-0-0-0---|
Bb|-12-10-10-10-9-9-9-7-7-7-5-5-5-4-4-4--|
Gb|--------------------------------------|
Db|--------------------------------------|
Ab|--------------------------------------|
C#|--------------------------------------|

Intro (gtr 2)
eb|---------------------------------------------------------------------------|
Bb|---------------------------------------------------------------------------|
Gb|---------------------------------------------------------------------------|
Db|---------------------------------------------------------------------------|
Ab|--2-2---2-2-2-2-2-2-2----2-2-2-2-2-2-2-2---2-2-2-2-2-2-2---2-2-2-2-2-2-----|
C#|--2-2---2-2-2-2-2-2-2----2-2-2-2-2-2-2-2---2-2-2-2-2-2-2---2-2-2-2-2-2-----|

eb|-----------------------------------------|---------------------------------|
Bb|--8-5-5-5-7-5-5-5-8-5-5-5-7-5-5-5--------|---------------------------------|
Gb|-----------------------------------------|---------------------------------|
Db|-----------------------------------------|---------6-6-6--7-7-7--2-2-2-----|
Ab|-----------------------------------------|--2-2-2--4-4-4--5-5-5--0-0-0-----|
C#|-----------------------------------------|--2-2-2--------------------------|
   ....'cause im beginning to feel numb...    x x x  x x x  x x x  x x x

Verse (gtr 1)
eb|---------------------------------|-------------|
Bb|---------------------------------|-------------|
Gb|--------------------9-11-12-14---|--17-16--14--|
Db|--5-5-5-5--7-7-7-7---------------|-------------|
Ab|--3-3-3-3--5-5-5-5--7-9--10-12---|--15-14--12--|
C#|---------------------------------|-------------|
    ...sick of the stabbing...        ....lets fall asleep.....

Verse (gtr 2)
eb|---------------------------------------------------------------------------|
Bb|--8-5-5-5-7-5-5-5-8-5-5-5-7-5-5-5------------------------------------------|
Gb|---------------------------------------------------------------------------|
Db|---------------------------------------------------------------------------|
Ab|-----------------------------------0-2-2-2-2-0-2-2-2-2-0-2-2-2-2-0-2-2-2-2-|
C#|-----------------------------------0-2-2-2-2-0-2-2-2-2-0-2-2-2-2-0-2-2-2-2-|
                                         x x x     x x x     x x x     x x x
...sick of the stabbing... then i dont know the other guitar for the harmonized part

Breakdown (gtr 1)
eb|----------------------------------|----------------------------------------|
Bb|-5-5-5-5-5-5-5-5-5-5-5-5-5-5-5-5--|--5-5-3-3-3-3-3-3-7-7-7-7-7-8-7-5-7-8-10|
Gb|----------------------------------|----------------------------------------|
Db|-----a-million-times--------------|---then---------------------------------|
Ab|----------------------------------|----------------------------------------|
C#|----------------------------------|----------------------------------------|

eb|--------------------------------------------------|
Bb|-10-8-8-8-8-8-7-7-7-7-7-10-10-10-10-10-8-8-8-8-8--|
Gb|--------------------------------------------------|
Db|--------------------------------------------------|
Ab|--------------------------------------------------|
C#|--------------------------------------------------|

Breakdown (gtr 2)
eb|---------------------------------------------------------------------------|
Bb|-h8p0--h8p0--h8p0--h8p0--h8p0--h8p0-h8p0-h8p0--h7p0--h7p0--h7p0--h7p0--h7p0|
Gb|---------------------------------------------------------------------------|
Db|---------------------------------------------------------------------------|
Ab|---------------------------------------------------------------------------|
C#|---------------------------------------------------------------------------|

eb|---------------------------------------------------------------------------|
Bb|-h7p0--h7p0--h7p0--h10p0--h10p0--h10p0--h10p0--h10p0--h10p0--h10p0--h10p0--|
Gb|---------------------------------------------------------------------------|
Db|---------------------------------------------------------------------------|
Ab|---------------------------------------------------------------------------|
C#|---------------------------------------------------------------------------|

eb|---------------------------------------------------|
Bb|--h8p0--h8p0--h8p0--h8p0--h8p0--h8p0--h8p0--h8p0---|
Gb|---------------------------------------------------|
Db|---------------------------------------------------| x2
Ab|---------------------------------------------------|
C#|---------------------------------------------------|

then......
eb|---------------------------------------------------------------------------|
Bb|--h12p8p0-h12p8p0--h12p8p0-h12p8p0-h12p8p0--h10p7p0-h10p7p0-h10p7p0--------|
Gb|---------------------------------------------------------------------------|
Db|---------------------------------------------------------------------------|
Ab|---------------------------------------------------------------------------|
C#|---------------------------------------------------------------------------|

eb|---------------------------------------------------------------------------|
Bb|--h10p7p0-h10p7p0-h10p7p0--h13p10p0-h13p10p0-h13p10p0-h13p10p0-h13p10p0----|
Gb|---------------------------------------------------------------------------|
Db|---------------------------------------------------------------------------|
Ab|---------------------------------------------------------------------------|
C#|---------------------------------------------------------------------------|

eb|-------------------------------|
Bb|---h12p8p0-h12p8p0-h12p8p0-----|
Gb|-------------------------------|
Db|-------------------------------|
Ab|-------------------------------|
C#|-------------------------------|

Outro (gtr 1)
eb|---------------------------------------------------------------------------|
Bb|---------------------------------------------------------------------------|
Gb|-----------------9-9-9-9-----------------9-9-9-9-----------------7-7-7-7---|
Db|---------------------------------------------------------------------------|
Ab|-2-2-2-2-2-2-2-2-7-7-7-7-2-2-2-2-2-2-2-2-7-7-7-7-5-5-5-5-5-5-5-5-5-5-5-5---|
C#|-2-2-2-2-2-2-2-2---------2-2-2-2-2-2-2-2---------5-5-5-5-5-5-5-5-----------|
    x x x x x               x x x x x               x x x x x

   but i need.......
eb|--------------------------|
Bb|--------------------------|
Gb|------------------8-8-8-8-|
Db|--------------------------| x2
Ab|-4-4-4-4-4-4-4-4--6-6-6-6-|
C#|-4-4-4-4-4-4-4-4----------|
    x x x x x

Outro (gtr 2)
eb|---------------------------------------------------------------------------|
Bb|-----------------8-8-8-8-----------------8-8-8-8---------------------------|
Gb|-----------------9-9-9-9-----------------9-9-9-9------------------7-7-7-7--|
Db|------------------------------------------------------------------9-9-9-9--|
Ab|-2-2-2-2-2-2-2-2---------2-2-2-2-2-2-2-2---------5-5-5-5-5-5-5-5-----------|
C#|-2-2-2-2-2-2-2-2---------2-2-2-2-2-2-2-2---------5-5-5-5-5-5-5-5-----------|
    x x x x x               x x x x x               x x x x x

   but i need......
eb|-----------------------------|
Bb|------------------8-8p7-7----|
Gb|------------------8-8-8-8----|
Db|-----------------------------|
Ab|-4-4-4-4-4-4-4-4-------------|
C#|-4-4-4-4-4-4-4-4-------------|
    x x x x x


Текст, аккорды и табулатура для песни "Kill Me Quickly", исполняет "Thrice".
Используемые в песне аккорды можно найти в разделе Как брать аккорды. Аккорды для шестиструнной гитары. Другие песни можно найти на нашем сайте, воспользовавшись алфавитным указателем вверху страницы.


 
Ошибка в тексте? Выделите ошибку и нажмите Ctrl+Enter