Band: Thrice
Song: Identity Crisis
Tabbed by: Superman

  Intro (play this 2 times):
e|---------------------------------------------------------------------------|
B|---------------------------------------------------------------------------|
G|---------------------------------------------------------------------------|
D|--------------4-----4-----4h5-4--------2-----0-----4-----4h5-4-------------|
A|--------2------------------------3-3-3---3-3---3-3---3-3-------------------|
E|--0-0-0---0-0---0-0---0-0--------------------------------------------------|
    x x x   x x   x x   x x        x x x   x x   x x   x x

e|---------------------------------------------------------------------------|
B|---------------------------------------------------------------------------|
G|---------------------------------------------------------------------------|
D|--------------------4-----4h5-4------4-----5-----7-----5-----4-------------|
A|--------2-----0------------------5-5---5-5---5-5---5-5---5-5---------------|
E|--3-3-3---3-3---3-3---3-3--------------------------------------------------|
    x x x   x x   x x   x x        x x   x x   x x   x x   x x

play this 1 time:
e|---------------------------------------------------------------------------|
B|---------------------------------------------------------------------------|
G|---------------------------------------------------------------------------|
D|--------------4-----4-----4h5-4--------2-----0-----4-----4h5-4-------------|
A|--------2------------------------3-3-3---3-3---3-3---3-3-------------------|
E|--0-0-0---0-0---0-0---0-0--------------------------------------------------|
    x x x   x x   x x   x x        x x x   x x   x x   x x

e|---------------------------------------------------------------------------|
B|---------------------------------------------------------------------------|
G|---------------------------------------------------------------------------|
D|--------------------4-----4h5-4------1-----2-----4-----2-----1-------------|
A|--------2-----0------------------2-2---2-2---2-2---2-2---2-2---------------|
E|--3-3-3---3-3---3-3---3-3--------------------------------------------------|
    x x x   x x   x x   x x        x x   x x   x x   x x   x x

  verse (Guitar one):
e|---------------------------------------------------------------------------|
B|---------------------------------------------------------------------------|
G|---------------------------------------------------------------------------|
D|---------------------------------------------------------------------------|
A|-7~~~~~/3~~~~~~/7~~~~~~/3~~~~~---------------------------------------------|
E|---------------------------------------------------------------------------|

  verse (Guitar two):
e|---------------------------------------------------------------------------|
B|---------------------------------------------------------------------------|
G|---------------------------------------------------------------------------|
D|-5~~~~~/2~~~~~~/5~~~~~~/2~~~~~--4h5p4-2------------------------------------|
A|---------------------------------------------------------------------------|
E|---------------------------------------------------------------------------|

  End of verse (Guitar one):
e|---------------------------------------------------------------------------|
B|---------------------------------------------------------------------------|
G|-22222222-5555555555-----------444444444-----------------------------------|
D|-22222222-5555555555-555555555-444444444-----------------------------------|
A|-00000000-3333333333-555555555-222222222-----------------------------------|
E|---------------------333333333---------------------------------------------|
  
  End of verse (Guitar two):
e|---------------------------------------------------------------------------|
B|---------------------------------------------------------------------------|
G|-22222222-555555555--16--14--12-11--8--------------------------------------|
D|-22222222-555555555--------------------------------------------------------|
A|-00000000-333333333--14--12--10--9--6--------------------------------------|
E|---------------------------------------------------------------------------|

  Chorus (Guitar two):
e|---------------------------------------------------------------------------|
B|---------------------------------------------------------------------------|
G|---------------------------------12--11---9--------------------------------|
D|--------------4-----4-----4h5-4--------------------------------------------|
A|--------2------------------------10---9---7--------------------------------|
E|--0-0-0---0-0---0-0---0-0--------------------------------------------------|
    x x x   x x   x x   x x       

e|---------------------------------------------------------------------------|
B|---------------------------------------------------------------------------|
G|---------------------------------12-11--14--12-11--12----------------------|
D|--------------4-----4-----4h5-4--------------------------------------------|
A|--------2------------------------10--9--12--10--9--10----------------------|
E|--0-0-0---0-0---0-0---0-0--------------------------------------------------|
    x x x   x x   x x   x x       

e|---------------------------------------------------------------------------|
B|---------------------------------------------------------------------------|
G|---------------------------------5--7--9--12--11--12-----------------------|
D|--------2-----0-----4-----4h5-4--------------------------------------------|
A|--3-3-3---3-3---3-3---3-3--------3--5--7--10---9--10-----------------------|
E|---------------------------------------------------------------------------|
    x x x   x x   x x   x x      

e|---------------------------------------------------------------------------|
B|---------------------------------------------------------------------------|
G|----------------------------------12--7--8~~~------------------------------|
D|--------2-----0-----4-----4h5-4--------------------------------------------|
A|--3-3-3---3-3---3-3---3-3---------10--5--6~~~------------------------------|
E|---------------------------------------------------------------------------|
    x x x   x x   x x   x x      

  chorus (Guitar one):
e|---------------------------------------------------------------------------|
B|---------------------------------------------------------------------------|
G|---------------------------------------------------------------------------|
D|--------------4-----4-----4h5-4--2--2--2--2--2--2--------------------------|
A|--------2------------------------2--2--2--2--2--2--------------------------|
E|--0-0-0---0-0---0-0---0-0--------0--0--0--0--0--0--------------------------|
    x x x   x x   x x   x x       

e|---------------------------------------------------------------------------|
B|---------------------------------------------------------------------------|
G|---------------------------------------------------------------------------|
D|--------------4-----4-----4h5-4--2--2--2--2--2--2--------------------------|
A|--------2------------------------2--2--2--2--2--2--------------------------|
E|--0-0-0---0-0---0-0---0-0--------0--0--0--0--0--0--------------------------|
    x x x   x x   x x   x x       

e|---------------------------------------------------------------------------|
B|---------------------------------------------------------------------------|
G|---------------------------------5--5--5--5--5--5--------------------------|
D|--------------------4-----4h5-4--5--5--5--5--5--5--------------------------|
A|--------2-----0------------------3--3--3--3--3--3--------------------------|
E|--3-3-3---3-3---3-3---3-3--------------------------------------------------|
    x x x   x x   x x   x x      

e|---------------------------------------------------------------------------|
B|---------------------------------------------------------------------------|
G|---------------------------------5-5----4~~~-------------------------------|
D|--------------------4-----4h5-4--5-5----4~~~-------------------------------|
A|--------2-----0------------------3-3----2~~~-------------------------------|
E|--3-3-3---3-3---3-3---3-3--------------------------------------------------|
    x x x   x x   x x   x x      

  Pre-verse (Guitar one):
e|---------------------------------------------------------------------------|
B|---------------------------------------------------------------------------|
G|---------------------------------------------------------------------------|
D|--------------------------------2~~~~--------------------------------------|
A|-7~~~~~/3~~~~~~/7~~~~~~/3~~~~~--2~~~~--------------------------------------|
E|--------------------------------0~~~~--------------------------------------|

  Verse (Guitar two):
e|---------------------------------------------------------------------------|
B|---------------------------------------------------------------------------|
G|---------------------------------------------------------------------------|
D|-5~~~~~/2~~~~~~/5~~~~~~/2~~~~~--4h5p4-2--2~~~~-----------------------------|
A|-----------------------------------------2~~~~-----------------------------|
E|-----------------------------------------0~~~~-----------------------------|

  End of verse (Guitar one):
e|---------------------------------------------------------------------------|
B|---------------------------------------------------------------------------|
G|-22222222-5555555555-----------444444444-----------------------------------|
D|-22222222-5555555555-555555555-444444444-----------------------------------|
A|-00000000-3333333333-555555555-222222222-----------------------------------|
E|---------------------333333333---------------------------------------------|

  End of verse (Guitar two):
e|---------------------------------------------------------------------------|
B|---------------------------------------------------------------------------|
G|-22222222-555555555--16--14--12-11--8--------------------------------------|
D|-22222222-555555555--------------------------------------------------------|
A|-00000000-333333333--14--12--10--9--6--------------------------------------|
E|---------------------------------------------------------------------------|
 
(repeat chorus)

  Bridge:
e|---------------------------------------------------------------------------|
B|---------------------------------------------------------------------------|
G|-4~~-----------------------------------------------------------------------|
D|-----5-4-4h5p4-2~-----------------------5-----5---------0h2-2-2-4h5p4-0----|
A|------------------3-2-3-2-2h3p2---7-7-7---7-7---7--------------------------|
E|--------------------------------------------------3-3-3--------------------|

e|---------------------------------------------------------------------------|
B|---------------------------------------------------------------------------|
G|---------------------------------------------------------------------------|
D|---------5*-----5---------0h2-2-2-4h5p4-0----------------------------------|
A|---7-7-7----7-7---7--------------------------------------------------------|
E|--------------------3-3-3--------------------------------------------------|

  Outro:    
e|---------------------------------------------------------------------------|
B|---------------------------------------------------------------------------|
G|-12-11-9----12-11--14/16-16-14/16--5--7--9---12-11--8---12-11--12--14------|
D|---------------------------------------------------------------------------|
A|-10--9-7----10--9--12/14-14-12/14--3--5--7---10--9--6---10--9--10--12------|
E|---------------------------------------------------------------------------|
  
e|---------------------------------------------------------------------------|
B|---------------------------------------------------------------------------|
G|-12-11--12-11--14/16--12-12-12-11/12--9/11--7/9--12-11-12-14-12-11-12-11---|
D|---------------------------------------------------------------------------|
A|-10--9--10--9--12/14--10-10-10--9/10--7/-9--5/7--10--9-10-12-10--9-10--9---|
E|---------------------------------------------------------------------------|

e|---------------------------------------------------------------------------|
B|---------------------------------------------------------------------------|
G|-14/16-16-16-14/16--5-7-9-12-12-14--16-17-16-14--12--8/9-5/7--4/5/4--------|
D|---------------------------------------------------------------------2~~---|
A|-12/14-14-14-12/14--3-5-7-10-10-12--14-15-14-12--10--6/7-3/5--2/3/2--2~~---|
E|---------------------------------------------------------------------0~~---|


Текст, аккорды и табулатура для песни "Identity Crisis", исполняет "Thrice".
Используемые в песне аккорды можно найти в разделе Как брать аккорды. Аккорды для шестиструнной гитары. Другие песни можно найти на нашем сайте, воспользовавшись алфавитным указателем вверху страницы.


 
Ошибка в тексте? Выделите ошибку и нажмите Ctrl+Enter