Song: Cold Cash and Colder Hearts
Artist: Thrice
Album: The Artist In The Ambulance
Tabbed by: Christian / [email protected]


Tuning: C G C F A D

/ - Slide up
PM - Palm mute


Accurate I hope..have fun.


Verse
|-------------------------------------------------------|
|-------------------------------------------------------|
|-5/7-7----------5/7-7----------------------------------|
|-------0-3-3-3--------0-3-3-3--8-8-8-8-8-8-5-5-5-5-5-5-|
|-3/5-5-0-3-3-3--3/5-5-0-3-3-3--8-8-8-8-8-8-5-5-5-5-5-5-|
|-------0-3-3-3--------0-3-3-3--8-8-8-8-8-8-5-5-5-5-5-5-|


|-------------------------------------------------------|
|-------------------------------------------------------|
|-5/7-7----------5/7-7----------------------------------|
|-------0-3-3-3--------0-3-3-3--5-5-5-5-5-5-8-8-8-8-8-8-|
|-3/5-5-0-3-3-3--3/5-5-0-3-3-3--5-5-5-5-5-5-8-8-8-8-8-8-|
|-------0-3-3-3--------0-3-3-3--5-5-5-5-5-5-8-8-8-8-8-8-|


|-------------------------------------------------------------------|
|-------------------------------------------------------------------|
|-10-10-10--9-9-9--10-10-10-------10-10-10----------10-10-10--9-9-9-|
|--9--9--9--8-8-8---8--8--8--------8--8--8-----------9--9--9--8-8-8-|
|--9--9--9--8-8-8---8--8--8--0-0---8--8--8--0-0-0-0--9--9--9--8-8-8-|
|--9--9--9--8-8-8------------0-0------------0-0-0-0--9--9--9--8-8-8-|
PM                           - -            - - - -


Palm mute (harmonized)
|-------------------------------------------------------------------------------------------------------------------|
|-----------------------------------------------------------11-11-11-11-11-11--10-10-10-10-10-10--------------------|
|-10-10-10-10-10-10--9-9-9-9-9-9--6-6-6-6-6-6--7-7-7-7-7-7----------------------------------------10-10-10-10-10-10-|
|-------------------------------------------------------------------------------------------------------------------|
|-------------------------------------------------------------------------------------------------------------------|
|-------------------------------------------------------------------------------------------------------------------|


Fill
|-------------|
|-------------|
|-7-7-7-7-7-7-|
|-------------|
|-5-5-5-5-5-5-|
|-------------|


Bridge 
|--------|
|--------|
|--12~---|
|--12~---|
|--10~---|
|--------|


I think delay is used here
|--------6-5---------------6-5----------------------------------------------|
|----6-------6-6~------6-------6-6~----------6-5-----------------6-5--------|
|--7---7-------------7---7---------------7-------5-5h7~------7-------5-5h7~-|
|5-----------------5-------------------7---7---------------7---7------------|
|------------------------------------5-------------------5------------------|
|---------------------------------------------------------------------------|


|--------6-5---------------6-5---------|
|----6-------6-6~------6-------6-6~----|
|--7---7-------------7---7-------------|
|5-----------------5-------------------|
|--------------------------------------|
|--------------------------------------|


Guitar 1 (Joins guitar 2 after this riff)
|---------| 
|---------| 
|---------| 
|-0-0-0-0-| 
|-0-0-0-0-| 
|-0-0-0-0-|


Guitar 2 (This part is actually the orchestra outro at the end)
|-------------------------------------------------------------------------------------------------------------|
|-------------------------------------------------------------------------------------------------------------|
|-10-10-10-10-10-10--9-9-9-9-9-9--6-6-6-6-6-6--7-7-7-7-7-7--15-15-15-15-15-15--14-14-14-14-14-14--9-9-9-9-9-9-|
|-------------------------------------------------------------------------------------------------------------|
|--8--8--8--8--8--8--7-7-7-7-7-7--4-4-4-4-4-4--5-5-5-5-5-5--13-13-13-13-13-13--12-12-12-12-12-12--7-7-7-7-7-7-|
|-------------------------------------------------------------------------------------------------------------|


Cont. Guitar 2
|-------------------|
|-------------------|
|-10-10-10-10-10-10-|
|-------------------|
|--8--8--8--8--8--8-|
|-------------------|


The cool crazy part: Both Guitars
|-------------------------------------------------------------------| 
|-------------------------------------------------------------------| 
|-10-10-10-------10-10-10----------10-10-10-------10-10-10----------| 
|--8--8--8--------8--8--8-----------8--8--8--------8--8--8----------| 
|--8--8--8--0-0---8--8--8--0-0-0-0--8--8--8--0-0---8--8--8--0-0-0-0-| 
|-----------0-0------------0-0-0-0-----------0-0------------0-0-0-0-| 
PM          - -            - - - -           - -            - - - -


|------------------------------------------------------------|
|------------------------------------------------------------|
|-9-9-9-------9-9-9-----------9-9-9-------9-9-9--------------|
|-7-7-7-------7-7-7-----------7-7-7-------7-7-7--------------|
|-0-0-0--0-0--0-0-0--0-0-0-0--0-0-0--0-0--0-0-0--0-0-0-0-0-0-|
|--------0-0---------0-0-0-0---------0-0---------0-0-0-0-0-0-|
         - -         - - - -         - -         - - - - - -

|------------------------------------------------| 
|------------------------------------------------| 
|-10----10----10----10----10----10----10----10---| 
|--8-----8-----8-----8-----8-----8-----8-----8---| 
|--8--0--8--0--8--0--8--0--8--0--8--0--8--0--8-0-| 
|-----0-----0-----0-----0-----0-----0-----0----0-| 
PM    -     -     -     -     -     -     -    -


|--------------------------------------------------------|
|--------------------------------------------------------|
|-9-9-9-------9-9-9-----------9-9-9-------9-9-9----------|
|-7-7-7-------7-7-7-----------7-7-7-------7-7-7----------|
|-0-0-0--0-0--0-0-0--0-0-0-0--0-0-0--0-0--0-0-0--0-0-0-0-|
|--------0-0---------0-0-0-0---------0-0---------0-0-0-0-|
         - -         - - - -         - -         - - - -


|-12-12-12-12-12-12-12-12-|
|-13-13-13-13-13-13-13-13-|
|-------------------------|
|-------------------------|
|-------------------------|
|-------------------------|


Текст, аккорды и табулатура для песни "Cold Cash And Colder Hearts", исполняет "Thrice".
Используемые в песне аккорды можно найти в разделе Как брать аккорды. Аккорды для шестиструнной гитары. Другие песни можно найти на нашем сайте, воспользовавшись алфавитным указателем вверху страницы.


 
Ошибка в тексте? Выделите ошибку и нажмите Ctrl+Enter