Hey, this is my first tab so try to be a little understanding. I know that this isn't 
exactly right but it's pretty close and doesn't sound to bad. if any of you guys know 
any other of their songs, Please post them!

Tuning:
EADGBE

Intro:
------------------------------------------------------------
------------------------------------------------------------
-------7----------------------------------------------------
---7-------7-----------7---------------9--------------------
-5---5---5---5-----7-------7-------9-------9-------5--------
---------------5-5---5---5---5-7-7---7---7---7-3-3---3--3/5-

------------------------------------------------------------
------------------------------------------------------------
-------7*---------------------------------------------------
---7-------7-----------7*---7*---------9--------------------
-5---5---5---5-----7---------------9*------9-------5--------
---------------5-5---5---5---5-7-7---7---7---7-3-3---3--3/5-

***The Lead guitar plays the whole intro while a second guitar hits the notes that are 
stared

The rest is extreamly simple for almost the rest of the song. Basiclly all you do is play 
this 4 chords.  Just listen to the cd for the differant timings and plam mutings.


---x---x--x--x---
---x---x--x--x---
---7---x--x--x---
---7---7--9--5---
---5---7--9--5---
-------5--7--3---

here's the lead part inbeween the verses

------------------------------------------------------------
------------------------------------------------------------
------------------------------------------------------------
--7-7-5-5-3---7-7-5-5-3---7-7-5-5-3---0-0-4-4-5-------------
------------------------------------------------------------
------------------------------------------------------------

Then,
------------------------------------------------------------
------------------------------------------------------------
------------------------------------------------------------
--7777777777(bunch of times)--5-5-4-5-----------------------
------------------------------------------------------------
------------------------------------------------------------


The only other thing about this song is I think the rhythm guitar with the distortion in 
the background is d-tuned.
D-tuning
DADGBE
I play it like it is above because you move your hand less and it's just easier.  
the only difference in sound is that they play the open D when they play the above 
guitar riff.

Thats it any questions e-mail me at [email protected]
Have fun playing!


Текст, аккорды и табулатура для песни "When In Doubt", исполняет "Thousand Foot Krutch".
Используемые в песне аккорды можно найти в разделе Как брать аккорды. Аккорды для шестиструнной гитары. Другие песни можно найти на нашем сайте, воспользовавшись алфавитным указателем вверху страницы.


 
Ошибка в тексте? Выделите ошибку и нажмите Ctrl+Enter