here is my version of phenomenon by tfk. i think its pretty close but there are
some sketchy areas. if you want to know the timing just listen to the song and
i bet u can figure it out. this is also my first tab

Bass comes in when Trevor begins to sing and keep playing until the chorus begins

g|-----------------------------------------------|       
d|-----------------------------------------------|
a|-----------------------1-1-1-1--1--------------|
d|5-5-5-5--5--5-5-5-5--5------------3-3-3-3--3---|


chorus x2
g|----------------------------------------|
d|----------------------------------------|
a|----------------------------------------|
d|1--111-0—000-5-555-5-555----------------|


g|-------------------------------------------------|
d|-------------------------------------------------|
a|-------------------------------------------------|
d|1--111-0—000-5-555-5-5/8-88810-101010-1-1110-000-|

verse two lighter part
g|---------------------------------------------|
d|---------------------------------------------|
a|-----------------------1-1-1-1--1------------|
d|5-5-5-5--5--5-5-5-5--5------------3-3-3-3--3-|

g|---------------------------------------------|
d|---------------------------------------------|
a|-----------------------1-1-1-1--1------------|
d|5-5-5-5--5--5-5-5-5--5------------3-3-3-3--3-|

g|---------------------------------------------|
d|---------------------------------------------|
a|-----------------------1-1-1-1--1------------|
d|5-5-5-5--5--5-5-5-5--5------------3-3-3-3--3-|

g|---------------------------------------------|
d|---------------------------------------------|
a|-----------------------1-1-1-1--1------------|
d|5-5-5-5--5--5-5-5-5--5------------3-3-3-3--3-|

verse two: heavy part
g|---------------------------------|
d|---------------------------------|
a|----------------1111111----------|
d|5555555-5555555---------3333333--|

g|------------------------------|
d|------------------------------|
a|----------------6666666-------|
d|5555555-5555555---------3-3-3-|

chorus: play 2x
g|----------------------------------------------|
d|----------------------------------------------|
a|----------------------------------------------|
d|1--111-0—000-5--555-5-555---------------------|


g|------------------------------------------------------|
d|------------------------------------------------------|
a|------------------------------------------------------|
d|1--111-0—000-5--555-5-555/8-88810-101010---1-1110-000-|



bridge 
g|-----------------------------------|
d|-----------------------------------|
a|------------------11111111-33333333|
d|55555555-00000000------------------| 

g|-----------------------------------|
d|-----------------------------------|
a|------------------11111111-33333333|
d|55555555-00000000------------------|

g|-----------------------------------|
d|-----------------------------------|
a|------------------11111111-33333333|
d|55555555-00000000------------------|

g|-----------------------------------|
d|-----------------------------------|
a|------------------11111111-33333333|
d|55555555-00000000------------------|

chorus softer part play twice
g|--------------------------------------| 
d|1--111-0--000-5--555-5-555------------|
a|--------------------------------------|
d|--------------------------------------|


chorus heavy part
g|------------------------------------------------------|
d|------------------------------------------------------|
a|------------------------------------------------------|
d|-1--111-0-000-0--000-0--000/8-88810-101010-1-1110-0000|

and the outro
g|-----------------------------------|
d|-----------------------------------|
a|------------------11111111-33333333|
d|55555555-00000000------------------| 

g|-----------------------------------|
d|-----------------------------------|
a|------------------11111111-33333333|
d|55555555-00000000------------------|

g|-----------------------------------|
d|-----------------------------------|
a|------------------11111111-33333333|
d|55555555-00000000------------------|

g|-----------------------------------|
d|-----------------------------------|
a|------------------11111111-33333333|
d|55555555-00000000------------------|

this is my tab. if you have any questions email me at [email protected]


Текст, аккорды и табулатура для песни "Phenomenon", исполняет "Thousand Foot Krutch".
Используемые в песне аккорды можно найти в разделе Как брать аккорды. Аккорды для шестиструнной гитары. Другие песни можно найти на нашем сайте, воспользовавшись алфавитным указателем вверху страницы.


 
Ошибка в тексте? Выделите ошибку и нажмите Ctrl+Enter