Tuning: Normal

	Intro/ Verse
e|-----------3-----------------3-----------3-----3-----3---------------------|
B|-------------3-----------------3-----------3-----3-----3-------------------|
G|---------0-----0-----------------2-----------0-----0-----0-----------------|
D|-------2---------2-0------0--------0---2-----------------------------------|
A|-0-2-3------------------0--------------2-----------------------------------|
E|----------------------2----------------0-----------------------------------|

e|-----------3---------------3---3-------------------------------------------|
B|-------------3-------------3---3-------------------------------------------|
G|---------0-----0--------2--2---0-------------------------------------------|
D|-------2---------2p-0---0------2-------------------------------------------|
A|-0-2-3------------------0------2-------------------------------------------|
E|------------------------2------0-------------------------------------------|
	
Repeat for pre-chorus

	Chorus
e|-3---3---3--||--3--3--3--|--3--3--3--3--3--3--|--3--3---3----3----3--------|
B|-3---3---3--||--3--3--3--|--3--3--3--3--3--3--|--3--3-----3----3----3------|
G|-0---2---0--||--0--0--2--|--0--2--0--0--0--2--|--0--2-------0----0----0----|
D|-2---0---0--||--0--2--0--|--2--0--0--0--2--0--|--3--0--2-------------------|
A|-3---0---2--||--0--2--0--|--3--0--2--0--2--0--|--2--0--2-------------------|
E|-x---2---3--||--2--0--x--|--x--2--3--2--0--x--|--x--2--0-------------------|

All of the strumming isn't written down so try and listen to figure it out.

| || repeat
| p  pull-off
| x  Mute note

==============================================================================


Текст, аккорды и табулатура для песни "Lift It", исполняет "Thousand Foot Krutch".
Используемые в песне аккорды можно найти в разделе Как брать аккорды. Аккорды для шестиструнной гитары. Другие песни можно найти на нашем сайте, воспользовавшись алфавитным указателем вверху страницы.


 
Ошибка в тексте? Выделите ошибку и нажмите Ctrl+Enter