Bounce - TFK
Drop D tuning!

Intro (low-fi) (*=palm muted):           (normal)
E----------------------------------------------------------------------------
B----------------------------------------------------------------------------
G----------------------------------------------------------------------------
D--2--5-4--4/5-0--2--5-4--*4-*4-4/5-4/5--2--5-4--4/5-0--2--5-4-*4-*4-4/5-4/5-
A--2--5-4--4/5-0--2--5-4--*4-*4-4/5-4/5--2--5-4--4/5-0--2--5-4-*4-*4-4/5-4/5-
D--2--5-4--4/5-0--2--5-4--*4-*4-4/5-4/5--2--5-4--4/5-0--2--5-4-*4-*4-4/5-4/5-

E--------------------------------------------
B--------------------------------------------
G--------------------------------------------
D--2--5-4--4/5-0-7-7-7-7-7-7-7-7-7-9-9-9-9-5-
A--2--5-4--4/5-0-7-7-7-7-7-7-7-7-7-9-9-9-9-5-
D--2--5-4--4/5-0-7-7-7-7-7-7-7-7-7-9-9-9-9-5-

Verse:
Don't play for a little bit
At 0:31:
no more hate..
E------------0-0-0-0-0-0-0-0-0-0-0---------------------------------
B--8-8-8-8-8-*-*-*-*-*-*-*-*-*-*-*-7-7-7-7-7-7-7-7-7-7-7-7-7-7-7-7-
G--9-9-9-9-9-7-7-7-7-7-7-7-7-7-7-7-7-7-7-7-7-7-7-7-7-7-7-7-7-7-7-7-
D------------------------------------------------------------------
A------------------------------------------------------------------
D------------------------------------------------------------------

E-----------------------------------------------------------------
B--7-8-8-8-8-8-8-8-8-8-10-10-10-10-10-10-10-8-8-8-8-8-8-8---------
G--9-9-9-9-9-9-9-9-9-9-9--9--9--9--9--9--9--9-9-9-9-9-9-9---------
D---------------------------------------------------------5-0-2-4-
A---------------------------------------------------------5-0-2-4-
D---------------------------------------------------------5-0-2-4-

Chorus: X2
E------------------------------------------------------------------------------
B------------------------------------------------------------------------------
G------------------------------------------------------------------------------
D-2--5-4--4/5-0--2--5-4-*4-*4-4/5-4/5--2-5-4-4/5-0-7-7-7-7-7-7-7-7-7-9-9-9-9-5-
A-2--5-4--4/5-0--2--5-4-*4-*4-4/5-4/5--2-5-4-4/5-0-7-7-7-7-7-7-7-7-7-9-9-9-9-5-
D-2--5-4--4/5-0--2--5-4-*4-*4-4/5-4/5--2-5-4-4/5-0-7-7-7-7-7-7-7-7-7-9-9-9-9-5-

Verse (play at 1:09)

Chorus (x2)
Chrous continues second time and ends like this:
E--------
B--0-----
G--------
D--0-2-4-
A--0-2-4-
D--0-2-4-








Bridge  (There are two seperate guitar parts) X2
E--7--7-7--7-7--7-7------------------------------------------------------------
B--0--0-0--0-0--0-0--------------0--0-0-0--0-0-0-0-0-0-0-0-0-0-0---------------
G--------------------------------5--5-5-5--4-4-4-2-2-2-2-2-2-2-2---------------
D--2--2--2-2-2-2-2-*4--*4-4--*4-*4-*4-4--*4-4-4--5-5-5-5-5-5-5-5-7-7-7--7-7-10-
A--2--2--2-2-2-2-2-*4--*4-4--*4-*4-*4-4--*4-4-4--5-5-5-5-5-5-5-5-7-7-7--7-7-10-
D--2--2--2-2-2-2-2-*4--*4-4--*4-*4-*4-4--*4-4-4--5-5-5-5-5-5-5-5-7-7-7--7-7-10-

Bridge Conitnues (2:13) X4
E------0-0-------0-0------|-0-----------0--------0--------0-----0--0--0--0-
B--0-0-----0/1-1----------|-5-----------4--------3--------1-----5--4--3--1-
G--------------------2-2--|------------------------------------------------
D------2-2-------2-2------|-2--2-0-3-2--2-0-3-2--2-0-3-2--2-0-3-2--2--2--2-
A--2-2-----2/3-3-----0-0--|-2--2-0-3-2--2-0-3-2--2-0-3-2--2-0-3-2--2--2--2-
D-------------------------|-2--2-0-3-2--2-0-3-2--2-0-3-2--2-0-3-2--2--2--2-
This is very accurate.

Final Choruses (I couldn't fit it on one line, so just keep reading the tab to
stay with the cd.):

E-----------------------------------------------------------------------------
B-----------------------------------------------------------------------------
G-----------------------------------------------------------------------------
D--2--5-4--4/5-0--2--5-4-*4-*4-4/5-4/5--2-5-4-4/5-0-7-7-7-7-7-7-7-7-7-9-9-9-9-
A--2--5-4--4/5-0--2--5-4-*4-*4-4/5-4/5--2-5-4-4/5-0-7-7-7-7-7-7-7-7-7-9-9-9-9-
D--2--5-4--4/5-0--2--5-4-*4-*4-4/5-4/5--2-5-4-4/5-0-7-7-7-7-7-7-7-7-7-9-9-9-9-

E---------------------------------------------------------------------------
B---------------------------------------------------------------------------
G---------------------------------------------------------------------------
D--5-5-5-2--5-4--4/5-0--2--5-4-*4-*4-4/5-4/5--2-5-4-4/5-0-7-7-7-7-7-7-7-7-7-
A--5-5-5-2--5-4--4/5-0--2--5-4-*4-*4-4/5-4/5--2-5-4-4/5-0-7-7-7-7-7-7-7-7-7-
D--5-5-5-2--5-4--4/5-0--2--5-4-*4-*4-4/5-4/5--2-5-4-4/5-0-7-7-7-7-7-7-7-7-7-

E----------------
B----------------
G----------------
D--9-9-9-9-5-fall
A--9-9-9-9-5-fall
D--9-9-9-9-5-fall


Текст, аккорды и табулатура для песни "Bounce", исполняет "Thousand Foot Krutch".
Используемые в песне аккорды можно найти в разделе Как брать аккорды. Аккорды для шестиструнной гитары. Другие песни можно найти на нашем сайте, воспользовавшись алфавитным указателем вверху страницы.


 
Ошибка в тексте? Выделите ошибку и нажмите Ctrl+Enter