name: Guillaume Dussault

artist: Third Eye Blind

SongTitle: Wounded

Tabs: #----------------------------------PLEASE 
NOTE--------------------------------#
#This file is the author's own work and represents their interpretation 
of the#
#song. You may only use this file for private study, scholarship, or 
research.#
#-----------------------------------------------------------------------------#
#-- File created with Instab - 
http://www.pconline.com/~smcarey/instab.html --#
#-----------------------------------------------------------------------------#

Author/Artist: Third Eye Blind
Title: Wounded
Album: Blue
Tunning: Standard
Transcribed by: Guillaume Dussault
Email: [email protected]

I saw a lot of transcriptions of this song, and none of them with 
standard tunning, all of them with some bizzare open tunning. N-e-ways base 
on what i saw and on my guitar skills he're a simple and accurated 
transcription of the song (for the verse, chorus, pre-chorus, outro riff at 
the very less).

Intro (clean)
---------------------------------|--------------------------------------------
-------------7---7---------7-----|-------------7---------------7--------------
-----7-7---7---7---7-7---7---7-7-|-----7-7---7---7-----7-7---7---7------------
-7-7-----7-------------7---------|-7-7-----7-------7-7-----7------------------
-5-------------------------------|-5------------------------------------------
---------------------------------|--------------------------------------------
                                                                              
play this part 3x
-------------------------|----------------------------------------------------
-------------------7-----|----------------------------------------------------
-----7-p-----6-6-----6-6-|-----7----------------------------------------------
---7-----7-7-----7-------|---7---7-7---7---7----------------------------------
-0-----------------------|-0---------7---7---7--------------------------------
-------------------------|----------------------------------------------------
                                                                              
Verse (clean)(listen to the album how many time to play the part and 
chords)
------------------------------------------------------------------------------
------------------------------------------------------------------------------
-7-7-7-7-7-7-7----------------------------------------------------------------
-7-7-7-7-7-7-7--9-9-9-9-9-9--7-7-7-7-7-7-7------------------------------------
-5-5-5-5-5-5-5--9-9-9-9-9-9--7-7-7-7-7-7-7------------------------------------
----------------7-7-7-7-7-7--5-5-5-5-5-5-5------------------------------------
                                                                              
Pre-chorus (distortion)(play once listen to the album)
------------------------------------------------------------------------------
------------------------------------------------------------------------------
------------7-7--x------------------------------------------------------------
-9-/-7--9--7-7--x--7-7-7-7-7-7-7-7-7--5-5-5--x--9-9-9-9-9-9--x--7-7-7-7-7-7--
-9-/-7--9--5-5--x--7-7-7-7-7-7-7-7-7--5-5-5--x--9-9-9-9-9-9--x--7-7-7-7-7-7--
-7-/-5--7----------5-5-5-5-5-5-5-5-5--3-3-3--x--7-7-7-7-7-7--x--5-5-5-5-5-5--
                                                                              



Chorus  (distortion)(play 4 times, listen to the album)
------------------------------------------------------------------------------
------------------------------------------------------------------------------
---------------------------7-7-7-7-7-7----------------------------------------
-7-7-7-7-7-7--5-5-5-5-5-5--7-7-7-7-7-7--7-7-7-7-7-7--5-5-5-5-5-5--------------
-7-7-7-7-7-7--5-5-5-5-5-5--5-5-5-5-5-5--7-7-7-7-7-7--5-5-5-5-5-5--------------
-5-5-5-5-5-5--3-3-3-3-3-3---------------5-5-5-5-5-5--3-3-3-3-3-3--------------
                                                                              
then play:
verse 3x
pre-chorus 1x
chorus 6x

Outro riff
(this part 4x)        then this part until the end
--------------------|---------------------------------------------------------
--------------------|---------------------------------------------------------
--------------------|---------------------------------------------------------
-7-7-7-7--x--5-5-5--|--7-7-7--------------------------------------------------
-7-7-7-7--x--5-5-5--|--7-7-7--------------------------------------------------
-5-5-5-5--x--3-3-3--|--5-5-5--------------------------------------------------
                                                                              




Текст, аккорды и табулатура для песни "Wounded", исполняет "Third Eye Blind".
Используемые в песне аккорды можно найти в разделе Как брать аккорды. Аккорды для шестиструнной гитары. Другие песни можно найти на нашем сайте, воспользовавшись алфавитным указателем вверху страницы.


 
Ошибка в тексте? Выделите ошибку и нажмите Ctrl+Enter