---------------------------------------------------------------------------
			     Semi-Charmed Life - Third eye Blind
----------------------------------------------------------------------------
Tabbed by:_Samee_
Email:[email protected]

The Song is the same throught
 g, d, dsus4, Cadd9 (Background through the whole song) 

INTRO
   g               d         dsus4 Cadd9
e|-3-3-3-3-3-3-----2-2-2-2-2-3-----3-3-3-3-----3-3-3-3---3-3----| 3x
B|-3-3-3-3-3-3-----3-3-3-3-3-3-----3-3-3-3-----3-3-3-3---3-3----|
G|-0-0-0-0-0-0-----2-2-2-2-2-2-----0-0-0-0-----0-0-0-0---0-0----|
D|-0-0-0-0-0-0-----0-0-0-0-0-0-----2-2-2-2-----2-2-2-2---2-2----|
A|-2-2-2-2-2-2---------------------3-3-3-3-----3-3-3-3---3-3----|
E|-3-3-3-3-3-3--------------------------------------------------|

   g               d         dsus4 Cadd9 
e|-3-3-3-3-3-3-----2-2-2-2-2-3-----3-3-3-3-----3-3-3-3---3-3----|
B|-3-3-3-3-3-3-----3-3-3-3-3-3-----3-3-3-3-----3-3-3-3---3-3----|
G|-0-0-0-0-0-0-----2-2-2-2-2-2-----0-0-0-0-----0-0-0-0---0-0----|
D|-0-0-0-0-0-0-----0-0-0-0-0-0-----2-2-2-2-----2-2-2-2---2-2----|
A|-2-2-2-2-2-2---------------------3-3-3-3-----3-3-3-3---3-2----|
E|-3-3-3-3-3-3--------------------------------------------------|
   Do, do, do.     Do, do, do, do.  Do, do, do.   Do, do, do, do.

   g               d         dsus4 Cadd9                 (ONLY 1)
e|-3-3-3-3-3-3-----2-2-2-2-2-3-----3-3-3-3-----3-3-3-3---3------|
B|-3-3-3-3-3-3-----3-3-3-3-3-3-----3-3-3-3-----3-3-3-3---3------|
G|-0-0-0-0-0-0-----2-2-2-2-2-2-----0-0-0-0-----0-0-0-0---0------|
D|-0-0-0-0-0-0-----0-0-0-0-0-0-----2-2-2-2-----2-2-2-2---2------|
A|-2-2-2-2-2-2---------------------3-3-3-3-----3-3-3-3---3------|
E|-3-3-3-3-3-3--------------------------------------------------|
   Do, do, do.     Do, do, do, do.  Do, do, do.         Im packed and Im

(G)
holding 
                   (D)               (Dsus4)   
I'm smiling, she's living, she's golden
    (Cadd9)                      
She lives for me, says she lives for me
 (G)         (D)        (Dsus4) 
Ovation, her own motivation
(cadd9)                              (G)
She comes round and she goes down on me
               (D)           (dsus4)  (cadd9)
And I make her smile, like a drug for you
                                       (G) 
Do ever what you wanna do, coming over you
           (D)           (Dsus4)    
Keep on smiling, what we go through
(cadd9)
One stop to the rhythm that divides you
   
(G  *And I speek to you*) Guitar 2         
e|-3-3-3-3-3-3
B|-3-3-3-3-3-3
G|-0-0-0-0-0-0
D|-0-0-0-0-0-0
A|-2-2-2-2-2-2
E|-3-3-3-3-3-3
 (g)               (d)         (dsus4)   (Cadd9)              
And I speak to you like the chorus to the verse

(*I think u get the G, D, dsus4, Cadd9 pattern now that goes threw the whole
song Keep Doing this till *Say good-bye*)  

   g               d         dsus4 Cadd9                          
e|-3-3-3-3-3-3-----2-2-2-2-2-3-----3(hold for 3 sec)---3-3-----|
B|-3-3-3-3-3-3-----3-3-3-3-3-3-----3-------------------3-3-----|
G|-0-0-0-0-0-0-----2-2-2-2-2-2-----0-------------------0-0-----|
D|-0-0-0-0-0-0-----0-0-0-0-0-0-----2-------------------2-2-----|
A|-2-2-2-2-2-2---------------------3-------------------3-3-----|
E|-3-3-3-3-3-3-------------------------------------------------|
say good-bye (there is only one Cadd9 not 2 strums)


 
   g               d         dsus4 Cadd9                         
e|-3-3-3-3-3-3-----2-2-2-2-2-3-----3-3-3-3-----3-3-3-3---3-3----|
B|-3-3-3-3-3-3-----3-3-3-3-3-3-----3-3-3-3-----3-3-3-3---3-3----|
G|-0-0-0-0-0-0-----2-2-2-2-2-2-----0-0-0-0-----0-0-0-0---0-0----|
D|-0-0-0-0-0-0-----0-0-0-0-0-0-----2-2-2-2-----2-2-2-2---2-2----|
A|-2-2-2-2-2-2---------------------3-3-3-3-----3-3-3-3---3-3----|
E|-3-3-3-3-3-3--------------------------------------------------|
   Do, do, do.     Do, do, do, do.  Do, do, do.   Do, do, do, do.

   g               d         dsus4 Cadd9                         
e|-3-3-3-3-3-3-----2-2-2-2-2-3-----3-3-3-3-----3-3-3-3---3-3----|
B|-3-3-3-3-3-3-----3-3-3-3-3-3-----3-3-3-3-----3-3-3-3---3-3----|
G|-0-0-0-0-0-0-----2-2-2-2-2-2-----0-0-0-0-----0-0-0-0---0-0----|
D|-0-0-0-0-0-0-----0-0-0-0-0-0-----2-2-2-2-----2-2-2-2---2-2----|
A|-2-2-2-2-2-2---------------------3-3-3-3-----3-3-3-3---3-3----|
E|-3-3-3-3-3-3--------------------------------------------------|
   Do, do, do.     Do, do, do, do.  Do, do, do.            

(so nowstarts the picking at *the sky was gold* 
The rest of the tab will be under solo only so 
this isnt huge)

_Samee_


Текст, аккорды и табулатура для песни "Semi-charmed Life", исполняет "Third Eye Blind".
Используемые в песне аккорды можно найти в разделе Как брать аккорды. Аккорды для шестиструнной гитары. Другие песни можно найти на нашем сайте, воспользовавшись алфавитным указателем вверху страницы.


 
Ошибка в тексте? Выделите ошибку и нажмите Ctrl+Enter