Never Let You Go - Third Eye Blind - Blue 
TABBED BY [email protected]
revised by Scott Schaffer, too
 
INTRO (Guitar intro then this slide)
G|------14-- 
D|--/14----- 
A|---------- 
E|----------
 
VERSES 
G|------------------------- 
D|--2----------2----------- 
A|----2--0-0-----2--0-0-0-- 
E|------------------------- 
 
BRIDGE (1:50)           (1:50)
G|-------------------6x----9-8-9--------------
D|--2p1h2----------2-6x----------9-7------9---
A|---------2-0-2h4---6x-OR-----------7h10-----
E|-------------------6x----------------------- 
 
INTRO (Guitar E B A)
 
VERSE 1 (0:11)
 
PRE-CHORUS (0:28)
 
CHORUS (0:42)
 
VERSE 2 (1:03)
 
PRE-CHORUS (1:19)
 
CHORUS (1:33)
 
BRIDGE (1:50)
 
VERSE 3 (2:15) (Guitars Only)
 
PRE-CHORUS (2:30) (Towards the end of the PRE-CHORUS,
G|----------- slide to this E and rapidly play it)
D|--14-14-14- 
A|----------- 
E|-----------  
 
CHORUS (2:45)(GUITAR PICKING)
 
CHORUS (3:01)
 
OUTRO VERSE (3:27)
 
   If that's boring try messing around in Emajor pentatonic.
  G|---------------7-9--|     
  D|-----------7-9------|     
  A|-------7-9----------| or  E F# G# A B C# D# E for you note people
  E|--7-10--------------|
 
And for that highly repetitive, but cool, VERSE riff,
 Try walking up to the E that the riff starts on.
VERSES 
G|-------------------------------|
D|--2----------2--------------2--|
A|----2--0-0-----2--0-0-0h2h4----|
E|-------------------------------|


Текст, аккорды и табулатура для песни "Never Let You Go", исполняет "Third Eye Blind".
Используемые в песне аккорды можно найти в разделе Как брать аккорды. Аккорды для шестиструнной гитары. Другие песни можно найти на нашем сайте, воспользовавшись алфавитным указателем вверху страницы.


 
Ошибка в тексте? Выделите ошибку и нажмите Ctrl+Enter