Third Eye Blind: Hows it gonna be

	I tabbed the whole song from top to bottom
	so just listen to the song and scroll down
	                enjoy!
        
        - Jaron

 D - Down Stroke
 u - Up Stroke

       F       C      Bb (B Flat)   Gm (G minor)
 
e|-----1---------0-------1----------3----|
b|-----2---------1-------3----------3----|
G|-----3---------0-------3----------3----|
D|-----3---------2-------0----------0----|
A|-----0---------3-------0----------0----|
E|-----0---------0-------0----------0----|
__________________________________________________

Intro(clean): 1st part 0:06 - 0:24 
              2nd part 0:24 - 0:35

     F                   C    Bb 

 e|--1--1--1-1-1--1-1-1--0-0--1--1-1-1-1--1-1-1----|
 b|--2--2--2-2-2--2-2-2--1-1--3--3-3-3-3--3-3-3----|
 G|--3--3--3-3-3--3-3-3--0-0--3--3-3-3-3--3-3-3----|
 D|--3--3--3-3-3--3-3-3--2-2--0--0-0-0-0--0-0-0----|x3
 A|--0--0--0-0-0--0-0-0--3-3--0--0-0-0-0--0-0-0----|
 E|--0--0--0-0-0--0-0-0--0-0--0--0-0-0-0--0-0-0----|
     D  D  u u D  u D u  D D  D  u D u D  D u D    

2nd guitar (play this over the chord round)

 e|--------------------------------------------------------------------------------------|
 b|-----10-11-10--------10-11-10----10-11-13-------10-11-10--------10-11-10----10-11-----|
 G|--------------10--10----------10-------------10----------10--10----------10-------12--|
 D|--------------------------------------------------------------------------------------| x2
 A|--------------------------------------------------------------------------------------|
 E|--------------------------------------------------------------------------------------|
   *Hint* You can use hammer ons and pull offs to make it sound really good
___________________________________________________

Verse(clean): 0:35 - o:59

     F                   C    Bb 

 e|--1--1--1-1-1--1-1-1--0-0--1--1-1-1-1--1-1-1----|
 b|--2--2--2-2-2--2-2-2--1-1--3--3-3-3-3--3-3-3----|
 G|--3--3--3-3-3--3-3-3--0-0--3--3-3-3-3--3-3-3----|
 D|--3--3--3-3-3--3-3-3--2-2--0--0-0-0-0--0-0-0----|x4
 A|--0--0--0-0-0--0-0-0--3-3--0--0-0-0-0--0-0-0----|
 E|--0--0--0-0-0--0-0-0--0-0--0--0-0-0-0--0-0-0----|
     D  D  u u D  u D u  D D  D  u D u D  D u D 
___________________________________________________

Chorus(clean): 0:59 - 1:21
     Gm                  F       C

 e|--3--3--3-3-3--3-3-3--1-1--0--0-0-0-0--0-0-0----
 b|--3--3--3-3-3--3-3-3--2-2--1--1-1-1-1--1-1-1----
 G|--3--3--3-3-3--3-3-3--3-3--0--0-0-0-0--0-0-0----
 D|--0--0--0-0-0--0-0-0--3-3--2--2-2-2-2--2-2-2----
 A|--0--0--0-0-0--0-0-0--0-0--3--3-3-3-3--3-3-3----
 E|--0--0--0-0-0--0-0-0--0-0--0--0-0-0-0--0-0-0----
     D  D  u u D  u D u  D D  D  u D u D  D u D

     Gm                  F       Bb

 e|--3--3--3-3-3--3-3-3--1-1--1--1-1-1-1--1-1-1----
 b|--3--3--3-3-3--3-3-3--2-2--3--3-3-3-3--3-3-3----
 G|--3--3--3-3-3--3-3-3--3-3--3--3-3-3-3--3-3-3----
 D|--0--0--0-0-0--0-0-0--3-3--3--0-0-0-0--0-0-0----
 A|--0--0--0-0-0--0-0-0--0-0--0--0-0-0-0--0-0-0----
 E|--0--0--0-0-0--0-0-0--0-0--0--0-0-0-0--0-0-0----
     D  D  u u D  u D u  D D  D  u D u D  D u D             

     Gm                  F       C

 e|--3--3--3-3-3--3-3-3--1-1--0--0-0-0-0--0-0-0----
 b|--3--3--3-3-3--3-3-3--2-2--1--1-1-1-1--1-1-1----
 G|--3--3--3-3-3--3-3-3--3-3--0--0-0-0-0--0-0-0----
 D|--0--0--0-0-0--0-0-0--3-3--2--2-2-2-2--2-2-2----
 A|--0--0--0-0-0--0-0-0--0-0--3--3-3-3-3--3-3-3----
 E|--0--0--0-0-0--0-0-0--0-0--0--0-0-0-0--0-0-0----
     D  D  u u D  u D u  D D  D  u D u D  D u D

     Gm                  F     Bb  C

 e|--3--3--3-3-3--3-3-3--1-1---1---0-------|
 b|--3--3--3-3-3--3-3-3--2-2---3---1-------|
 G|--3--3--3-3-3--3-3-3--3-3---3---0-------|
 D|--0--0--0-0-0--0-0-0--3-3---0---2-------|
 A|--0--0--0-0-0--0-0-0--0-0---0---3-------|
 E|--0--0--0-0-0--0-0-0--0-0---0---0-------|
     D  D  u u D  u D u  D D   D   D   

_____________________________________________________

Interlude(clean): 1:23 - 1:35

     F                   C    Bb 

 e|--1--1--1-1-1--1-1-1--0-0--1--1-1-1-1--1-1-1----|
 b|--2--2--2-2-2--2-2-2--1-1--3--3-3-3-3--3-3-3----|
 G|--3--3--3-3-3--3-3-3--0-0--3--3-3-3-3--3-3-3----|
 D|--3--3--3-3-3--3-3-3--2-2--0--0-0-0-0--0-0-0----|x2
 A|--0--0--0-0-0--0-0-0--3-3--0--0-0-0-0--0-0-0----|
 E|--0--0--0-0-0--0-0-0--0-0--0--0-0-0-0--0-0-0----|
     D  D  u u D  u D u  D D  D  u D u D  D u D    

2nd guitar (play this over the chord round)

 e|--------------------------------------------------------------------------------------|
 b|-----10-11-10--------10-11-10----10-11-13-------10-11-10--------10-11-10----10-11-----|
 G|--------------10--10----------10-------------10----------10--10----------10-------12--|x2
 D|--------------------------------------------------------------------------------------|
 A|--------------------------------------------------------------------------------------|
 E|--------------------------------------------------------------------------------------|
____________________________________________________

Verse2(clean): 1:35 - 1:59

     F                   C    Bb 

 e|--1--1--1-1-1--1-1-1--0-0--1--1-1-1-1--1-1-1----|
 b|--2--2--2-2-2--2-2-2--1-1--3--3-3-3-3--3-3-3----|
 G|--3--3--3-3-3--3-3-3--0-0--3--3-3-3-3--3-3-3----|
 D|--3--3--3-3-3--3-3-3--2-2--0--0-0-0-0--0-0-0----|x4
 A|--0--0--0-0-0--0-0-0--3-3--0--0-0-0-0--0-0-0----|
 E|--0--0--0-0-0--0-0-0--0-0--0--0-0-0-0--0-0-0----|
     D  D  u u D  u D u  D D  D  u D u D  D u D 
_____________________________________________________

Chorus(clean): 1:59 - 2:21
     Gm                  F       C

 e|--3--3--3-3-3--3-3-3--1-1--0--0-0-0-0--0-0-0----
 b|--3--3--3-3-3--3-3-3--2-2--1--1-1-1-1--1-1-1----
 G|--3--3--3-3-3--3-3-3--3-3--0--0-0-0-0--0-0-0----
 D|--0--0--0-0-0--0-0-0--3-3--2--2-2-2-2--2-2-2----
 A|--0--0--0-0-0--0-0-0--0-0--3--3-3-3-3--3-3-3----
 E|--0--0--0-0-0--0-0-0--0-0--0--0-0-0-0--0-0-0----
     D  D  u u D  u D u  D D  D  u D u D  D u D

     Gm                  F       Bb

 e|--3--3--3-3-3--3-3-3--1-1--1--1-1-1-1--1-1-1----
 b|--3--3--3-3-3--3-3-3--2-2--3--3-3-3-3--3-3-3----
 G|--3--3--3-3-3--3-3-3--3-3--3--3-3-3-3--3-3-3----
 D|--0--0--0-0-0--0-0-0--3-3--3--0-0-0-0--0-0-0----
 A|--0--0--0-0-0--0-0-0--0-0--0--0-0-0-0--0-0-0----
 E|--0--0--0-0-0--0-0-0--0-0--0--0-0-0-0--0-0-0----
     D  D  u u D  u D u  D D  D  u D u D  D u D   

     Gm                  F       C

 e|--3--3--3-3-3--3-3-3--1-1--0--0-0-0-0--0-0-0----
 b|--3--3--3-3-3--3-3-3--2-2--1--1-1-1-1--1-1-1----
 G|--3--3--3-3-3--3-3-3--3-3--0--0-0-0-0--0-0-0----
 D|--0--0--0-0-0--0-0-0--3-3--2--2-2-2-2--2-2-2----
 A|--0--0--0-0-0--0-0-0--0-0--3--3-3-3-3--3-3-3----
 E|--0--0--0-0-0--0-0-0--0-0--0--0-0-0-0--0-0-0----
     D  D  u u D  u D u  D D  D  u D u D  D u D

     Gm                  F     Bb  C

 e|--3--3--3-3-3--3-3-3--1-1---1---0-------|
 b|--3--3--3-3-3--3-3-3--2-2---3---1-------|
 G|--3--3--3-3-3--3-3-3--3-3---3---0-------|
 D|--0--0--0-0-0--0-0-0--3-3---0---2-------|
 A|--0--0--0-0-0--0-0-0--0-0---0---3-------|
 E|--0--0--0-0-0--0-0-0--0-0---0---0-------|
     D  D  u u D  u D u  D D   D   D   
_____________________________________________________

Interlude2(clean): 2:22 - 2:28

     F                   C    Bb 

 e|--1--1--1-1-1--1-1-1--0-0--1--1-1-1-1--1-1-1----|
 b|--2--2--2-2-2--2-2-2--1-1--3--3-3-3-3--3-3-3----|
 G|--3--3--3-3-3--3-3-3--0-0--3--3-3-3-3--3-3-3----|
 D|--3--3--3-3-3--3-3-3--2-2--0--0-0-0-0--0-0-0----|x1
 A|--0--0--0-0-0--0-0-0--3-3--0--0-0-0-0--0-0-0----|
 E|--0--0--0-0-0--0-0-0--0-0--0--0-0-0-0--0-0-0----|
     D  D  u u D  u D u  D D  D  u D u D  D u D  
_____________________________________________________

Bridge(Distorted): 2:28 - 2:43

 Part 1 (distorted) 2:28 - 2:43

    Gm                 Bb                F                 C

 e|--3-3-3-3-3-3-3-3---1-1-1-1-1-1-1-1---1-1-1-1-1-1-1-1---0-0-0-0-0-0-0-0----
 b|--3-3-3-3-3-3-3-3---3-3-3-3-3-3-3-3---2-2-2-2-2-2-2-2---1-1-1-1-1-1-1-1----
 G|--3-3-3-3-3-3-3-3---3-3-3-3-3-3-3-3---3-3-3-3-3-3-3-3---0-0-0-0-0-0-0-0----
 D|--0-0-0-0-0-0-0-0---0-0-0-0-0-0-0-0---3-3-3-3-3-3-3-3---2-2-2-2-2-2-2-2----
 A|--0-0-0-0-0-0-0-0---0-0-0-0-0-0-0-0---0-0-0-0-0-0-0-0---3-3-3-3-3-3-3-3----
 E|--0-0-0-0-0-0-0-0---0-0-0-0-0-0-0-0---0-0-0-0-0-0-0-0---0-0-0-0-0-0-0-0----
     D D D D D D D D   D D D D D D D D   D D D D D D D D   D D D D D D D D
 
    Gm                 Bb

 e|--3-3-3-3-3-3-3-3---1--|
 b|--3-3-3-3-3-3-3-3---3--|
 G|--3-3-3-3-3-3-3-3---3--|
 D|--0-0-0-0-0-0-0-0---0--|
 A|--0-0-0-0-0-0-0-0---0--|
 E|--0-0-0-0-0-0-0-0---0--|
     D D D D D D D D   D

 Part 2 (distorted) 2:45 - 3:09

  F                   C    Bb 

 e|--1--1--1-1-1--1-1-1--0-0--1--1-1-1-1--1-1-1----|
 b|--2--2--2-2-2--2-2-2--1-1--3--3-3-3-3--3-3-3----|
 G|--3--3--3-3-3--3-3-3--0-0--3--3-3-3-3--3-3-3----|
 D|--3--3--3-3-3--3-3-3--2-2--0--0-0-0-0--0-0-0----|x4
 A|--0--0--0-0-0--0-0-0--3-3--0--0-0-0-0--0-0-0----|
 E|--0--0--0-0-0--0-0-0--0-0--0--0-0-0-0--0-0-0----|
     D  D  u u D  u D u  D D  D  u D u D  D u D 

 Part 3 (distorted) 3:09 - 3:24

     Gm                 Bb                F                 C

 e|--3-3-3-3-3-3-3-3---1-1-1-1-1-1-1-1---1-1-1-1-1-1-1-1---0-0-0-0-0-0-0-0----
 b|--3-3-3-3-3-3-3-3---3-3-3-3-3-3-3-3---2-2-2-2-2-2-2-2---1-1-1-1-1-1-1-1----
 G|--3-3-3-3-3-3-3-3---3-3-3-3-3-3-3-3---3-3-3-3-3-3-3-3---0-0-0-0-0-0-0-0----
 D|--0-0-0-0-0-0-0-0---0-0-0-0-0-0-0-0---3-3-3-3-3-3-3-3---2-2-2-2-2-2-2-2----
 A|--0-0-0-0-0-0-0-0---0-0-0-0-0-0-0-0---0-0-0-0-0-0-0-0---3-3-3-3-3-3-3-3----
 E|--0-0-0-0-0-0-0-0---0-0-0-0-0-0-0-0---0-0-0-0-0-0-0-0---0-0-0-0-0-0-0-0----
     D D D D D D D D   D D D D D D D D   D D D D D D D D   D D D D D D D D
 
    Gm                 Bb

 e|--3-3-3-3-3-3-3-3---1--|
 b|--3-3-3-3-3-3-3-3---3--|
 G|--3-3-3-3-3-3-3-3---3--|
 D|--0-0-0-0-0-0-0-0---0--|
 A|--0-0-0-0-0-0-0-0---0--|
 E|--0-0-0-0-0-0-0-0---0--|
     D D D D D D D D   D

 e|--------------------8----8----8----8----------------------------------------------
 b|--10--10--10--10--------------------------10--10--10--10-----8----8----8----8-----
 G|----10--10--10--10----10---10---10---10-----10--10--10--10-----10---10---10---10--
 D|----------------------------------------------------------------------------------
 A|----------------------------------------------------------------------------------
 E|----------------------------------------------------------------------------------

 e|-------------------------|
 b|--10--10--10--10---------|
 G|----10--10--10--10--10---|
 D|--------------------10---| - play that lead line over the chords
 A|--------------------8----|
 E|-------------------------|

_____________________________________________________

Outro(clean): 3:24 - 3:27

     F                   C    Bb                           F

 e|--1--1--1-1-1--1-1-1--0-0--1--1-1-1-1--1-1-1----|    e|-1-|
 b|--2--2--2-2-2--2-2-2--1-1--3--3-3-3-3--3-3-3----|    b|-2-|
 G|--3--3--3-3-3--3-3-3--0-0--3--3-3-3-3--3-3-3----|    G|-2-|
 D|--3--3--3-3-3--3-3-3--2-2--0--0-0-0-0--0-0-0----|x4  D|-3-|  -  end on that chord
 A|--0--0--0-0-0--0-0-0--3-3--0--0-0-0-0--0-0-0----|    A|-0-|
 E|--0--0--0-0-0--0-0-0--0-0--0--0-0-0-0--0-0-0----|    E|-0-|
     D  D  u u D  u D u  D D  D  u D u D  D u D            D

2nd guitar (play this over the chord round for the first 2 times through)

 e|--------------------------------------------------------------------------------------|
 b|-----10-11-10--------10-11-10----10-11-13-------10-11-10--------10-11-10----10-11-----|
 G|--------------10--10----------10-------------10----------10--10----------10-------12--|x2
 D|--------------------------------------------------------------------------------------|
 A|--------------------------------------------------------------------------------------|
 E|--------------------------------------------------------------------------------------|


Текст, аккорды и табулатура для песни "Hows It Going To Be", исполняет "Third Eye Blind".
Используемые в песне аккорды можно найти в разделе Как брать аккорды. Аккорды для шестиструнной гитары. Другие песни можно найти на нашем сайте, воспользовавшись алфавитным указателем вверху страницы.


 
Ошибка в тексте? Выделите ошибку и нажмите Ctrl+Enter