Tuning Low To High: DADEAD

I'm pretty sure this is how it's played. I've always played it like this
and not had any complaints.

Intro Riff (clean)
----------------------------------------------------0-----------------7-7-0-----
-------7-7-0-0-----------2-2-0-0----------0-----0h4---4---0-----------------0-7-
---0-0---------0-----0-0---------0----------0---------------0-----0-0-----------
---7-7-----------0---2-2-----------0----4-----4---------4---------7-7-----------
--------------------------------------------------------------------------------
/7-----------------2-----------------/4------------------------/7---------------
                                                               

The second time, the underlined part is replaced with:
--------7-7-0-----
--------7-----0---
----0-0---------0-
----7-7-----------
------------------
-/7---------------

Once you get to the verses, it's much more open and ringy, so I do this:

Verse (clean)
-----------------------------------0------------0-----------------------
---0-0-7-7-0-0-0-0---0-0-2-2-0-0-0----------4-4---4-0---0-0-7-7-0---0-0-
---0-0-----0-0-------0-0-----0-0----------0-------------0-0-0-0-0-------
---7-7-----7-7-------2-2-----2-2--------4---------------7-7-7-7-7-7-----
------------------------------------------------------------------------
-7-----------------2-----------------/4---------------7-----------------

Next comes the Pre-Chorus, and you should let it ring a bit:
(br = bend and release)
Pre-Chorus (distortion)
-0-------0-------------------0---0-----------0---0----------------
-0-------0-7-7-7-7-7br-0-----0-2---2-2-2br-0-0---0-4-4-4-4-4br-0--
-0-------0-x-x-x-------------0-0-------------0---0----------------
-7---------7-7-7---------2-------------------4--------------------
-x-----------------------x-------------------x--------------------
-7-7-7-7-----------------2-2-----------------4-4------------------
^--- repeat this ------^    -------------------------------------> here

Then comes the Chorus:

Chorus (distortion) (I can't keep it all together...)
-------------------------------------------------------------------------------
-------------------------------------------------------------------------------
----------14-14-14-14-14-14-14-14-14-14-14-14-14-14----------10-9---------10-9
-12-12-12-12-12-12-12-12-12-12-12-12-12-12-12-12-12--7-7-x-x-7--7---7-7-x-x-7-7
-12-12-12-12-12-12-12-12-12-12-12-12-12-12-12-12-12--7-7-x-x-7--7-0-7-7-x-x-7-7
-12-12-12-12-12-12-12-12-12-12-12-12-12-12-12-12-12--7-7-x-x-7--7-0-7-7-x-x-7-7

Chorus Part 2 (distortion) (Siren's song that is...)
-------0-----------------------------------
-------0-----------------------------------
-------x-----------------------------------
-2--2--2--2-2-2-2-2-2-2--4-4-4-4-4-4-4-4---
-2--2--2--2-2-2-2-2-2-2--4-4-4-4-4-4-4-4---
-2--2--2--2-2-2-2-2-2-2--4-4-4-4-4-4-4-4-4-

The first hammer part is this I believe:
---------------------------7-0-
-0h7p0h7p0h7p0h7p0h7p0h7p0-----
-------------------------------
-------------------------------
-------------------------------
-------------------------------

Then towards the end (memory of a window...)
-------0-------0-------0-----0---------0-------0-------0-----0-0-
-------0-------0-------0-----0---------0-------0-------0-----0-0-
-----------------------------------------------------------------
-2-2-2---2-2-2---2-2-2---2-2---2-4-4-4---4-4-4---4-4-4---4-4-----
-2-2-2---2-2-2---2-2-2---2-2---2-4-4-4---4-4-4---4-4-4---4-4-----
-2-2-2---2-2-2---2-2-2---2-2---2-4-4-4---4-4-4---4-4-4---4-4-----

then there are some harmonics at the very end after(all alone, on your face...)

(* = harmonic)
      *     *     *     *
------5-----------------------
------------7-----------------
------------------------------
------------------7-----4-----
------------------------------
-/7---------------------------

And then the end hammers are just a repeat of this:
----------------------------------
-7p0-7p0-7p0-7p0-7p0-7p0-7p0-7p0--
----------------------------------
----------------------------------
----------------------------------
----------------------------------

The second guitar should mimic these pull-offs at the end, put stop after about
two, while using a wah, and let feedback come through. Then alter the sound of
the feedback with the wah. This is what i do to acheive that sharp pitched noise
at the end of the song.

Sorry, I know the tab is a little cramped. Please rate this and give comments.
I'd like to see how accurate other people think that it is.

E-mail: [email protected]


Текст, аккорды и табулатура для песни "God Of Wine", исполняет "Third Eye Blind".
Используемые в песне аккорды можно найти в разделе Как брать аккорды. Аккорды для шестиструнной гитары. Другие песни можно найти на нашем сайте, воспользовавшись алфавитным указателем вверху страницы.


 
Ошибка в тексте? Выделите ошибку и нажмите Ctrl+Enter