name: Jeff Wells

artist: Third Eye Blind

SongTitle: Darkness

Tabs: Tuning:
F# A C# F# G# E

Outro Tuning:
F# A C# F# G# F#

Intro:

-|-----------0------------------------0--------------
-|------10-----10-----------------3-----3------------
-|---------9--------9---------------2-------3p2-2p0--
-|---10----------10---10--------3---------3----------
-|-9--------------------------2----------------------
-|---------------------------------------------------


--------------0-----------------------0---------------|--
---------10-----10----------------3-------------------|--
------------9--------9--------------2-----------------|--
------10----------10---10-------3---------------------|--
--2/9-------------------------2-----------------------|--
------------------------------------------------------|--

  Another day begins ....

-|-----------0----------------------0--|-
-|-------8-----8----------------3------|-
-|---------7-------7--------------2----|-
-|-----8---------8---8--------3--------|-
-|-2/7----------------------2----------|-
-|-------------------------------------|-


Chorus:               

-|---------0----0----0--0--0----------0--0-0-------------------
-|--------10---10---10-10-10----------3--3-3-------------------
-|---------9----9----9--9--9----------2--2-2--2b3r2-2b3p0------
-|-x-x----10---10---10-10-10--------3-3--3-3----------------x3-
-|-x-x-----9----9----9--9--9--------2-2--2-2-------------------
-|-x-x-----9----9----9--9--9--------2-2--2-2-------------------
 

---0-0-0--0-0-0------0-0-0-0-0-|----
---8-8-8--8-8-8------3-3-3-3-3-|----
---7-7-7--7-7-7------2-2-2-2-2-|----
---8-8-8--8-8-8------3-3-3-3-3-|----
---7-7-7--7-7-7------2-2-2-2-2-|----
---7-7-7--7-7-7------2-2-2-2-2-|----

After 2nd Chorus and 2 times of the verse riff:

-|--0--0--0--0--0--0--0--0---0-0-0-0-0-0-0-0--------
-|-10-10-10-10-10-10-10-10---3-3-3-3-3-3-3-3--------
-|--9--9--9--9--9--9--9--9---2-2-2-2-2-2-2-2--------
-|-10-10-10-10-10-10-10-10---3-3-3-3-3-3-3-3----x2--
-|--9--9--9--9--9--9--9--9---2-2-2-2-2-2-2-2--------
-|--9--9--9--9--9--9--9--9---2-2-2-2-2-2-2-2--------


----0--0--0--0--0--0--0--0---0-0-0-0-0-0-0-0-------|---
---13-13-13-13-13-13-13-13---3-3-3-3-3-3-3-3-------|---
---12-12-12-12-12-12-12-12---2-2-2-2-2-2-2-2-------|---
---13-13-13-13-13-13-13-13---3-3-3-3-3-3-3-3----x2-|---
---12-12-12-12-12-12-12-12---2-2-2-2-2-2-2-2-------|---
---12-12-12-12-12-12-12-12---2-2-2-2-2-2-2-2-------|---
 
Outro: 

----0---------0-----------------------0-------------0---
--/10--------10--------------------/10------------10--
--/-9---------9--------------------/-9-------------9--
--/10--------10--------------------/10------------10--
--/-9---------9--------------------/-9-------------9--
--/-9---------9--------------------/-9-------------9--
 

-------0--0--0-------------0-0-0------------
------10-10-10-------------3-3-3------------
-------9--9--9-------------2-2-2------------
-3/10-10-10-10-------------3-3-3------------
-2/-9--9--9--9-------------2-2-2------------
-2/-9----------9h10-9p0--2-------2h3p2p0----
    

---------0--0-----------------3-3-------------------
--------10-10----10-----------2-2-------------------
---------9--9----------9b10---3-3-2b3r2b3r2b3r2p0---
---3/10-10-10-10----10--------2-2-------------------
---2/9---9--9-----------------2-2-------------------
---2/9----------------------2-----------------------


--0--0--0----12^-----------0-0-0-----------
-10-10-10-------12^--------3-3-3-----------
--9--9--9----------12^-----2-2-2-----------
-10-10-10------------------3-3-3-----------
--9--9--9----------------------------------
--9--9--9----------------2-------2-3-2-0---


------0--0--0---12^-----------0-0---------5^---
-----10-10-10-------12^-------3-3------5^------
------9--9--9-----------12^---2-2---5^---------
-----10-10-10-----------------3-3--------------
------9--9--9-----------------2-2--------------
-2/9------------------------2------------------
    

------0------0------12^----------------------0--------0------
-----10-10-----10-------12^--------------------3----3---3----
------9----9----------------12^----------2p0--------------2--
-----10--------------------------------3----------2----------
------9------------------------------2-----------------------
-2/9---------------------------------------------------------



Текст, аккорды и табулатура для песни "Darkness", исполняет "Third Eye Blind".
Используемые в песне аккорды можно найти в разделе Как брать аккорды. Аккорды для шестиструнной гитары. Другие песни можно найти на нашем сайте, воспользовавшись алфавитным указателем вверху страницы.


 
Ошибка в тексте? Выделите ошибку и нажмите Ctrl+Enter