Artist: Third Eye Blind
Title: Blinded
Album: Out of the Vein
Transcribed by: Martin Dominguez
Email: [email protected]


TUNING:  Standard EADGBE


INTRO/VERSE PART 1
					   to verse part 2
-----------------------1---1--1-1--1----------------------------------------------------------
-----------------1-----1---1--1-1--1----------------------------------------------------------
--3---3--3-3--3-----3--2---2--2-2--2--0-------------------------------------------------------
--3---3--3-3--3--------3---3--3-3--3-----3----------------------------------------------------
--1---1--1-1--1--------3---3--3-3--3----------------------------------------------------------
--1---1--1-1--1--------1---1--1-1--1----------------------------------------------------------
Just an old friend...	





VERSE PART 2

 Guitar 1			repeat once, then prechorus
---------------------------------|------------------------------------------------------------
---------------------------------|------------------------------------------------------------
---------------------------------|------------------------------------------------------------
--7--------5--------3--------3---|------------------------------------------------------------
--7--------5--------3--------3---|------------------------------------------------------------
--5--------3--------1--------3---|------------------------------------------------------------
...fogging up the mirror...


 Guitar 2 - riff over verse 2
---1h3p1h3p1h3p1----------------------------
--------------------------------------------
--------------------------------------------
--------------------------------------------
--------------------------------------------
--------------------------------------------





PRECHORUS
							repeat, then chorus
-|1------1-------|3------3-------|1------1-------|1------1-------|----------------------------
-|--1------1----1|--1------1----1|--1------1----1|--1------1----1|----------------------------
-|----3------3---|----3------3---|----2------2---|----2------2---|----------------------------
-|------3------3-|------3------3-|------3------3-|------3------3-|----------------------------
-|---------------|---------------|---------------|---------------|----------------------------
-|---------------|---------------|---------------|---------------|----------------------------
...run, never look back at all the damage...


 Chord Breakdown
-|1--------------|3--------------|1------3-------|1------1-------|----------------------------
-|1--------------|1--------------|1------1-------|1------1-------|----------------------------
-|3--------------|3--------------|2------2-------|2------2-------|----------------------------
-|3--------------|3--------------|3------3-------|3------3-------|----------------------------
-|1--------------|1--------------|3------3-------|2------3-------|----------------------------
-|1--------------|1--------------|1------1-------|1------1-------|----------------------------





CHORUS                                                                              
							repeat, then verse 1 or solo
-|1---1--1-3--3-3----------1---1--1-1---1--1--1|1---1--1-3--3-3----------1---1--1-0---0--0--0|
-|1---1--1-1--1-1----------1---1--1-1---1--1--1|1---1--1-1--1-1----------3---3--3-1---1--1--1|
-|3---3--3-3--3-3-3-2-0----2---2--2-2---2--2--1|3---3--3-3--3-3-3-2-0----2---2--2-0---0--0--0|
-|3---3--3-3--3-3-------3--3---3--3-3---3--3--1|3---3--3-3--3-3-------3--0---0--0-2---2--2--2|
-|1---1--1-1--1-1----------3---3--3-3---3--3--1|1---1--1-1--1-1----------0---0--0-3---3--3--3|
-|1---1--1-1--1-1----------1---1--1-1---1--1--1|1---1--1-1--1-1------------------------------|
 But when I see you...staring down the sun	...I'm blinded...





BREAKDOWN/SOLO
							     to verse part 2
-------------------------------5----------------------------------------------
---------------------6p5--6-8-------------------5---5-5--5--------------------
--3--3-3-3--3-5--5-5-------------5---5-5--5---5-5---5-5--5--------------------
--3--3-3-3--3-5--5-5-------------5---5-5--5---5-5---5-5--5--------------------
--1--1-1-1--1-3--3-3-------------3---3-3--3---3-3---3-3--3--------------------
------------------------------------------------------------------------------


Just repeat Verse and Chorus as necessary...


Текст, аккорды и табулатура для песни "Blinded", исполняет "Third Eye Blind".
Используемые в песне аккорды можно найти в разделе Как брать аккорды. Аккорды для шестиструнной гитары. Другие песни можно найти на нашем сайте, воспользовавшись алфавитным указателем вверху страницы.


 
Ошибка в тексте? Выделите ошибку и нажмите Ctrl+Enter