Song: I Deserve?
Artist: Third Day
Album: Conspiracy No. 5
Transcribed by: Andrew Schnitkey ([email protected])

Standard Tuning (E,A,D,G)

Intro & Verse
G |----------|--------|--------|---------|--------|--------|---------|
D |o-2-------|5---4---|2-------|5---4---o|2-------|--------|---------|
A |o---------|--------|--------|--------o|----3---|5-------|0--------|
E |----------|--------|--------|---------|--------|--------|---------|


Bridge                   Verse
G |----------|---------|----------|---------|--------|--------|---------|
D |o-2----2-4|5---4---o|o-2-------|5---4---o|2-------|--------|---------|
A |o---------|--------o|o---------|--------o|----3---|5-------|0--------|
E |----------|---------|----------|---------|--------|--------|---------|


Pre-Chorus               Chorus
G |----------|---------|---------|---------|--------|--------|
D |o---------|--------o|---------|---------|--------|--------|
A |o---------|--------o|---------|---------|--------|5-------|
E |--0----0-2|3---2----|1----(1)/|5----(5)|3----(3)|--------|


G |-------------|-----------|---------|---------|
D |-------------|-----------|---------|---------|
A |(5)/8----(8)/|12----(12)|10-------|---------|
E |-------------|-----------|---------|10-------|


Bridge
G |--------|--------|--------|---------------|
D |--------|--------|--------|---------------|
A |--------|--------|--------|---------------|
E |0----0-2|3---2---|0----0-2|3-3-3-3-2-2-2-2|


Chorus
G |----------------|---------|---------|---------|
D |----------------|---------|---------|---------|
A |----------------|---------|---------|---------|
E |1-1-1-1-1-1-1-1/|5---5--5|3---3--3/|10-------|


G |----------------|---------|---------|-----------------------------------|
D |----------------|---------|---------|-----------------------------------|
A |----------------|---------|---------|---------/15-15-15-15-15-15-13-----|
E |1-1-1-1-1-1-1-1/|5---5--5|3---3--3/|10--(10)/----------------------13-|


G |----------------|---------|---------|---------|
D |----------------|---------|---------|---------|
A |----------------|---------|---------|---------|
E |1-1-1-1-1-1-1-1/|5---5--5|3---3--3/|10-------|

                                                     Verse
G |----------------|---------|---------|-----------|--------|--------|
D |----------------|---------|---------|-----------|--------|--------|
A |----------------|---------|---------|-----------|--------|--------|
E |1-1-1-1-1-1-1-1/|5---5--5|3---3--3/|10----(10)/|12------|15--14--|


 Verse (cont.)
G |--------|--------|--------|--------|--------|
D |--------|--------|--------|--------|--------|
A |--------|--------|----3---|5-------|0-------|
E |0----0-2|3---2---|0-------|--------|--------|


Chorus
G |----------------|-----------|-----------|--------------|
D |----------------|-----------|-----------|--------------|
A |----------------|*--*--*----|*--*--*----|*---*---*-----|
E |1-1-1-1-1-1-1-1/|5--5--5--5|3--3--3--3/|10--10--10--10|


G |----------------|-----------|-----------|--------------------------------|
D |----------------|-----------|-----------|--------------------------------|
A |----------------|*--*--*----|*--*--*----|*---*--/15-15-15-15-15-15-13----|
E |1-1-1-1-1-1-1-1/|5--5--5--5|3--3--3--3/|10--10/----------------------13|


G |----------------|-----------|-----------|-------------------------------|
D |----------------|-----------|-----------|-------------------------------|
A |----------------|*--*--*----|*--*--*----|*---*--/15-15-15-15-15-15-15-15|
E |1-1-1-1-1-1-1-1/|5--5--5--5|3--3--3--3/|10--10/------------------------|



G |----------------|-----------|-----------|-------------------------------|
D |----------------|-----------|-----------|-------------------------------|
A |----------------|*--*--*----|*--*--*----|*---*--------------------------|
E |1-1-1-1-1-1-1-1/|5--5--5--5|3--3--3--3/|10--10--10-10-10-10-10-10-10-10|


G |----------------|-----------|-----------|-------------------------------|
D |----------------|-----------|-----------|-------------------------------|
A |----------------|*--*--*----|*--*--*----|*---*--/15-15-15-15-15-15-15-15|
E |1-1-1-1-1-1-1-1/|5--5--5--5|3--3--3--3/|10--10/------------------------|


G |----------------|-----------|-----------|--------------------------------|
D |----------------|-----------|-----------|--------------------------------|
A |----------------|*--*--*----|*--*--*----|----------------/15-15-15-15-15|
E |1-1-1-1-1-1-1-1/|5--5--5--5|3--3--3--3/|10-10-10-10-10-----------------|


G |-----------|-----------|-----------|--------------|
D |-----------|-----------|-----------|--------------|
A |*--*--*----|*--*--*----|*--*--*----|*---*---*-----|
E |1--1--1--1/|5--5--5--5|3--3--3--3/|10--10--10--10|


                                       Ending        (repeat & fade out)
G |-----------|-----------|-----------|--------|----------|---------|
D |-----------|-----------|-----------|5---4---|o-2----2-4|5---4---o|
A |*--*--*----|*--*--*----|*--*--*----|--------|o---------|--------o|
E |1--1--1--1/|5--5--5--5|3--3--3--3/|--------|----------|---------|


 Notation Guide

/ or  (slide)

E |-------|
A |o-----o|  (repeat)
D |o-----o|
G |-------|

* (staccato)

(X) 


Текст, аккорды и табулатура для песни "I Deserve", исполняет "Third Day".
Используемые в песне аккорды можно найти в разделе Как брать аккорды. Аккорды для шестиструнной гитары. Другие песни можно найти на нашем сайте, воспользовавшись алфавитным указателем вверху страницы.


 
Ошибка в тексте? Выделите ошибку и нажмите Ctrl+Enter