#-----------------------------------------------------------------------------#
#-- File created with Instab - http://www.pconline.com/~smcarey/instab.html --#
#-----------------------------------------------------------------------------#

Author/Artist: Third Day
Title: Consuming Fire
Album: Offerings
Transcribed by: Scott Korber
Email: [email protected]

I've been looking for this song for a long time, but all i could find were chord
s!
So I decided to just tab it my self. Well here it is, HAVE FUN!

-----------^12^---------------------------------------------------------------
------------------------------------------------------------------------------
---9--11-----------9/11-9-11h12-9-12p9-9-97-7/9--9----9-----9--^9^-----------
-9-------9---------------------------------------9-9/10-10/11-11--------------
------------------------------------------------------------------------------
------------------------------------------------------------------------------
 Intro heavy distortion                                                       

-------0-0-0-0-------0-0-0-0-------0-0-0-0-------0-0-0-0----------------------
-------0-0-0-0-------0-0-0-0-------0-0-0-0-------0-0-0-0----------------------
------------------------------------------------------------------7-----------
-2-5-7---------2-5-7---------2-5-7---------2-5-7---------2-2-5-5h7--7-0-0-9-9-
-2-5-7---------2-5-7---------2-5-7---------2-5-7---------2-2-5--------0-0-9-9-
-0-3-5---------0-3-5---------0-3-5---------0-3-5---------0-0-3--------2-2-7-7-
 Verse10:43 (Mostly bass guitar but i put it guitar)           1:06           

------------------------------------------------------------------------------
------------------------------------------------------------------------------
---------------------7-7-7-------------------7-7-7-------------------7-7-7----
---2-2-2-1010105-5-5-7-7-7-2-2-2-1010105-5-5-7-7-7-2-2-2-1010105-5-5-7-7-7----
---2-2-2-1010105-5-5-5-5-5-2-2-2-1010105-5-5-5-5-5-2-2-2-1010105-5-5-5-5-5----
---0-0-0-8-8-8-3-3-3-------0-0-0-8-8-8-3-3-3-------0-0-0-8-8-8-3-3-3----------
   Course 1:12                                                                

------------------------------------------------------------^12^-12-----------
--------------------------------------------------------------------12--------
-------------------7-7-7-------------------7-7-7-----9-11---------------------
-2-2-2-1010105-5-5-7-7-7-2-2-2-1010105-5-5-7-7-7---9------9-------------------
-2-2-2-1010105-5-5-5-5-5-2-2-2-1010105-5-5-5-5-5------------------------------
-0-0-0-8-8-8-3-3-3-------0-0-0-8-8-8-3-3-3------------------------------------
                                                                              

------------------------------------------------------------------------------
------------------------------------------------------------------------------
------------------------------------------------------------------------------
-2-2-2-2h5-5-5-5/7-7-5-5/7-5------2-2-5-5-4-4-9-9-----------------------------
-2-2-2-2h5-5-5-5/7-7-5-5/7-5--4x--2-2-5-5-4-4-9-9-----------------------------
-0-0-0-0h3-3-3-3/5-5-3-3/5-3------0-0-3-3-2-2-7-7-----------------------------
 Verse2 1:41                                                                  

------2--0h2-5------0-------10------2--0h2-5------0--10-10--------------------
--0h3-------------1----8h10-----0h3-------------1----10-10--------------------
----------------2-----------------------------2-------------------------------
------------------------------------------------------------------------------
------------------------------------------------------------------------------
------------------------------------------------------------------------------
 Interlude 4:37                                                               

-----2--0h2-5------0------0--0------------------------------------------------
-0h3-------------1------1----1------------------------------------------------
---------------2------2------2------------------------------------------------
------------------------------------------------------------------------------
--------------------------------------------------------5-5-5-5---------------
--------------------------------0-0-0-0-8-8-8-8-3-3-3-3-----------------------
                                Bass guitar plays this twice      Drum Fill   

------------------------10-12-10-9----12-9-7----10-9--------------------------
-12b-12b-12b-12-9-10-12------------12--------10-------------------------------
------------------------------------------------------9-12-9-9-14-12-11-12----
------------------------------------------------------------------------------
------------------------------------------------------------------------------
------------------------------------------------------------------------------
 Guitar Solo                                        This part was hard        

------------------------------------15-14-12----14-12-------------------------
-----------12---9------9-------9-------------12-------------------------------
-11-12-9-9----9---9/10---10/11---11-------------------------------------------
------------------------------------------------------------------------------
------------------------------------------------------------------------------
------------------------------------------------------------------------------
 This part i just kinda put their i couldn't figure it out, exept the end.    

------------------------------------------------------------------------------
----------------------------9-------------------------------------------------
-------------------7-7-7------------------------------------------------------
-2-2-2-1010105-5-5-7-7-7-8x---------------------------------------------------
-2-2-2-1010105-5-5-5-5-5------------------------------------------------------
-0-0-0-8-8-8-3-3-3------------------------------------------------------------
                            End          I didnt tab solo like thing at end


Текст, аккорды и табулатура для песни "Consuming Fire", исполняет "Third Day".
Используемые в песне аккорды можно найти в разделе Как брать аккорды. Аккорды для шестиструнной гитары. Другие песни можно найти на нашем сайте, воспользовавшись алфавитным указателем вверху страницы.


 
Ошибка в тексте? Выделите ошибку и нажмите Ctrl+Enter