e:-------------------------------9-8-------------------|  INTRO
B:-------------------8-8~-8-9-11-----9-9~--------------|
G:---------8-8~-8-10----------------------10-10~-------|
D:---10-11---------------------------------------11-10-|
A:-----------------------------------------------------|
E:-----------------------------------------------------|

e:----------------------------------------------------| VERSE
B:----------------------------------------------------|
G:----------------------------------------------------|
D:-----2-4---2--4-5------2-4---2--4-5--7--------------|
A:--5--0-2---0--2-3---5--0-2---0--2-3--5--------------|
E:--3-----------------3-------------------------------|

e:--------------------------------------------------------|
B:17b(19)-17-14-------------------------------------------| SOLO
G:--------------16b(18)16-14~----------14----16-14~-16-14~|
D:----------------------------16-14h16----16--------------|
A:--------------------------------------------------------|
E:--------------------------------------------------------|

e:------------14-17p14----14-16~-14----14h17p14----14---|
B:---------14----------17-----------17----------17----17|
G:-16b(18)----------------------------------------------|
D:------------------------------------------------------|
A:------------------------------------------------------|
E:------------------------------------------------------|

e:-----------------------------------------------------------------|
B:-12h13-12----12h13-----------------------------------------------|
G:----------14-------14-12-16b(18)16-14----------------------------|
D:--------------------------------------16-14-------------14-16-14~|
A:-----------------------------------------14-16-14-15-16----------|
E:-----------------------------------------------------------------|

e:-----------------------------------------------------------------------------|
B:-17-14----14-----------------------------------------------------------------|
G:-------16----16-14----16-14--------------------------------------------------|
D:-------------------16-------16-14----16p14----1412----1211----119----97--|
A:----------------------------------16-------16-------14-------12------11-----9|
E:-----------------------------------------------------------------------------|

e:-------------------------------------------------------------12-9-10-9|
B:---------------------------------------------10/12-10~-10-10----------|
G:-----------------9h11-9h11-------9/11-9~-9-9--------------------------|
D:-7-9p7-9-9/11-11-----------11-11--------------------------------------|
A:----------------------------------------------------------------------|
E:----------------------------------------------------------------------|

e:---------12--------------------------------|
B:-12b(14)----b(14)12p10----10-12p10----12p10|
G:-----------------------11----------11------|
D:-------------------------------------------|
A:-------------------------------------------|
E:-------------------------------------------|


Текст, аккорды и табулатура для песни "Southbound", исполняет "Thin Lizzy".
Используемые в песне аккорды можно найти в разделе Как брать аккорды. Аккорды для шестиструнной гитары. Другие песни можно найти на нашем сайте, воспользовавшись алфавитным указателем вверху страницы.


 
Ошибка в тексте? Выделите ошибку и нажмите Ctrl+Enter