#----------------------------------PLEASE NOTE---------------------------------#
#This file is the author's own work and represents their interpretation of the #
#song. You may only use this file for private study, scholarship, or research. #
#------------------------------------------------------------------------------##

Song: The Boys are Back in Town
Band: Thin Lizzy
Tabbed By: Leo B.

Well I just figured this song out. Not perfect but it should get you started.
I'm too lazy to do the solo cause it's not that good anyways, if you wanna play
good solo's don't rely on Thin Lizzy.
I love this song though.

Intro:


e:-----------------------------------------------|
B:-----------------------------------------------|
G:----------------------------------------6------| play this 4 times
D:---6------------------------------8-----6------|
A:---6-----6--8--8--8--6----6--8----8-----4------|
E:---4--------------------8---------6------------|
    G#5    P.M---------!           A#5   C#5-----|


Verses(yes, all of them): I'm not gonna do the exact thing. I'll just give the chords
        you figure out the patterns.

 G#5                C5
 Guess who just got back today?
 C#5                                F5
 Those wild-eyed boys that had been away
 G#5                C5
 Haven't changed, haven't much to say
 C#5                                F5
 But man, I still think those cats are great

 G#5                C5
 They were asking if you were around
 C#5                            D#5
 How you was, where you could be found
 G#5                C5
 I told them you were living downtown
 C#5                     F5
 Driving all the old men crazy

 Chorus: Basically the same as the intro!


 G#5                                                   A#5               C#5
 The boys are back in town, the boys are back in town

  G#5                              A#5               C#5
 I said the boys are back in town. The boys are back in town.

 Riff 1: Play this goodie after every chorus. Listen to the song to get the right rythm...

e:-----------------------------|-----------------------------------------|
B:-----------------------------|-----------------------------------------|
G:-----------------------------|-----------------------------------------|
D:------------6-6----------6-6-|----------8-8---------8-8-8-8-6---6-6----|
A:----6-6h8-8------6-6h8-8-----|--6-6h8-8-----6-6h8-8-----------8--------|
E:-----------------------------|-----------------------------------------|


e:-----------------------------|-----------------------------------------|
B:-----------------------------|-----------------------------------------|
G:-----------------------------|-----------------------------------10-8--|
D:------------6-6----------6-6-|----------8-8---------8-8-8-8/6----10-8--|
A:----6-6h8-8------6-6h8-8-----|--6-6h8-8-----6-6h8-8--------------8--6--|
E:-----------------------------|-----------------------------------------|


Well that's all I got right now. enjoy and have fun!

If you have any questions, or comments and really wanna nag me that much
 e-mail me at [email protected]...

Later


Текст, аккорды и табулатура для песни "Boys Are Back In Town", исполняет "Thin Lizzy".
Используемые в песне аккорды можно найти в разделе Как брать аккорды. Аккорды для шестиструнной гитары. Другие песни можно найти на нашем сайте, воспользовавшись алфавитным указателем вверху страницы.


 
Ошибка в тексте? Выделите ошибку и нажмите Ctrl+Enter