THEY MIGHT BE GIANTS
ANA NG 
TABBED BY JASON THE GREAT (BYRD)

The last tab i sent in was totally off, this sounds much better.

if you have a five string you could play this SO much better

Okay, I tabbed a 5 string version AND a 4 string version, take
whichever one happens to be compatable with your bass.

5 STRING VERSION

INTRO

G|-------------------------------------|
D|-------------------------------------|
A|-------------------------------------|
E|-0-0-0-0-0---------0-0-0-0-0---------|
B|-----------1-1-2-2-----------1-1-2-2-|

VERSE

G|-------------------------------------------------------------------------|
D|-------------------------------------------------------------------------|
A|---------------------------------------------------3---5-5-5-5-5-0-0-5-5-|
E|-0-0-0-0-0---------0-0-0-0-0---------0-0-0-0-0-5-3---3-------------------|
B|-----------1-1-2-2-----------1-1-2-2-------------------------------------|

CHORUS

G|-------------------------------|
D|-------------------------------|
A|----3--5--3--0-----1-1--3--5-5-|
E|-3--------------3--------------|
B|-------------------------------|

BRIDGE (about the bridge ironically enough)

G|--------------------------|
D|--------------------------|
A|-5--3--5---5--3--5--3---3-|
E|---------3------------3---|
B|--------------------------|

LAST VERSE

G|-------------------------------------|
D|-------------------------------------|
A|-------------------------------------|
E|-0-0-0-0-0---------0-0-0-0-0---------|
B|-----------1-1-3-3-----------1-1-3-3-|

G|-------------------|
D|-------------------|
A|---------------3---| x 3
E|-0-0-0-0-0-5-3---3-|
B|-------------------|

G|-------------------|
D|-------------------|
A|-5-5-5-5-5-0-0-5-5-|
E|-------------------|
B|-------------------|


4 STRING VERSION

INTRO

G|-------------------------------------|
D|-2-2-2-2-2---------2-2-2-2-2---------|
A|-----------3-3-5-5-----------3-3-5-5-|
E|-------------------------------------|

VERSE

G|-----------------------------------------------2-0-5-0-7-7-7-7-7-0-0-7-7-|
D|-2-2-2-2-2---------2-2-2-2-2---------2-2-2-2-2---------------------------|
A|-----------3-3-5-5-----------3-3-5-5-------------------------------------|
E|-------------------------------------------------------------------------|

CHORUS

G|-------------------------------|
D|-------------------------------|
A|----3--5--3--0-----1-1--3--5-5-|
E|-3--------------3--------------|

BRIDGE

G|--------------------------|
D|--------------------------|
A|-5--2--5---5--3--5--3---3-|
E|---------3------------3---|

LAST VERSE

G|-------------------------------------|
D|-2-2-2-2-2---------2-2-2-2-2---------|
A|-----------3-3-5-5-----------3-3-5-5-|
E|-------------------------------------|

G|-----------2-0-5-0-|
D|-2-2-2-2-2---------|
A|-------------------| x 3
E|-------------------|

G|-7-7-7-7-7-0-0-7-7-|
D|-------------------|
A|-------------------|
E|-------------------|

Jason The Great ([email protected])  if i made any HUGE errors,
please let me know.  if you know how to play Birdhouse in your soul
on guitar or bass, hit me up!  i can't figure that out.


Текст, аккорды и табулатура для песни "Ana Ng", исполняет "They Might Be Giants".
Используемые в песне аккорды можно найти в разделе Как брать аккорды. Аккорды для шестиструнной гитары. Другие песни можно найти на нашем сайте, воспользовавшись алфавитным указателем вверху страницы.


Слушать онлайн Ana Ng


They Might Be GiantsAna Ng на Яндекс.Музыке


 
Ошибка в тексте? Выделите ошибку и нажмите Ctrl+Enter