#----------------------------------PLEASE NOTE---------------------------------#
#This file is the author's own work and represents their interpretation of the #
#song. You may only use this file for private study, scholarship, or research. #
#------------------------------------------------------------------------------#
#


From [email protected] Wed Apr  9 12:45:51 1997
Date: Thu, 9 Apr 1998 01:20:41 +0100 (BST)
From: Alex Kruczkowski 
To: [email protected]
Subject: Breaking The Law by Therapy?

Breaking The Law as covered by Therapy?

This is on the Nowhere single.

Note: A=10, B=11, etc.

------------------------------------------------------------------------------

  A5                                F5
E|----------------|----------------|----------------|----------------|
B|----------------|----------------|----------------|----------------|
G|----------------|----------------|----------------|----------------| x4
D|----------------|----------------|----------------|----------------|
A|0---2---3---0-2-|--3---0-2---3---|--------0-------|--0-----3---2---|
E|----------------|----------------|1---3-------1-3-|------1---------|

  A5                                F5      G5       A5
E|----------------|----------------|----------------|----------------|
B|----------------|----------------|----------------|----------------|
G|----------------|----------------|----------------|----------------| x2
D|7---------------|----------------|3-------5-------|7---------------|
A|7---------------|----------------|3-------5-------|7---------------|
E|5---------------|----------------|1-------3-------|5---------------|
  There I was completely wasted,    out of work and down
  All men sigh, it's so frustrating as I drift from town to town

  F5                                A5
E|----------------|----------------|----------------|----------------|
B|----------------|----------------|----------------|----------------|
G|----------------|----------------|----------------|----------------|
D|3---------------|----------------|7---------------|----------------|
A|3---------------|----------------|7---------------|----------------|
E|1---------------|----------------|5---------------|----------------|
  Builder's son, nobody cares       if I live or die

  F5                                E5
E|----------------|----------------|----------------|----------------|
B|----------------|----------------|----------------|----------------|
G|----------------|----------------|----------------|----------------|
D|3---------------|----------------|----------------|----------------|
A|3---------------|----------------|2-2-2-2-2-2-2-2-|----------------|
E|1---------------|----------------|0-0-0-0-0-0-0-0-|----------------|
  So I might as well begin to put some action in my life

                                    A5
E|----------------|----------------|----------------|----------------|
B|----------------|----------------|----------------|----------------|
G|----------------|----------------|----------------|----------------|
D|----------------|----------------|7---------------|----------------|
A|----------------|----------------|7---------------|----------------|
E|----------------|----------------|5---------------|----------------|
  Breaking the law, breaking the law
                                    Breaking the law, breaking the law

  A5
E|----------------|----------------|----------------|----------------|
B|----------------|----------------|----------------|----------------|
G|----------------|----------------|----------------|----------------|
D|7-7-------------|----------------|7---------------|----------------|
A|7-7-------------|----------------|7---------------|----------------|
E|5-5-------------|----------------|5---------------|----------------|
  Breaking the law, breaking the law
                                    Breaking the law, breaking the law

  A5                                F5      G5       A5
E|----------------|----------------|----------------|----------------|
B|----------------|----------------|----------------|----------------|
G|----------------|----------------|----------------|----------------|
D|7---------------|----------------|3-------5-------|7-------3-2-----|
A|7---------------|----------------|3-------5-------|7-----------3-2-|
E|5---------------|----------------|1-------3-------|5---------------|
  So much for the golden future,    I can't even try

  A5                                F5      G5       A5
E|----------------|----------------|----------------|----------------|
B|----------------|----------------|----------------|----------------|
G|----------------|----------------|----------------|----------------|
D|7---------------|----------------|3-------5-------|7---------------|
A|7---------------|----------------|3-------5-------|7---------------|
E|5---------------|----------------|1-------3-------|5---------------|
  I've had every promise broken,    and there's anger in my heart

  F5                                A5
E|----------------|----------------|----------------|----------------|
B|----------------|----------------|----------------|----------------|
G|----------------|----------------|----------------|----------------|
D|3---------------|----------------|7---------------|----------------|
A|3---------------|----------------|7---------------|----------------|
E|1---------------|----------------|5---------------|----------------|
  You don't know what it's like,    you don't have a clue

  F5                                E5
E|----------------|----------------|----------------|----------------|
B|----------------|----------------|----------------|----------------|
G|----------------|----------------|--------9-------|----------------|
D|3---------------|----------------|----9-------9---|----------------|
A|3---------------|----------------|7---------------|7---------------|
E|1---------------|----------------|----------------|----------------|
  If you did you'd find yourself    doing the same thing too

                                    A5
E|----------------|----------------|----------------|----------------|
B|----------------|----------------|----------------|----------------|
G|----------------|----------------|----------------|----------------|
D|----------------|----------------|7---------------|----------------|
A|----------------|----------------|7---------------|----------------|
E|----------------|----------------|5---------------|----------------|
  Breaking the law, breaking the law
                                    Breaking the law, breaking the law

  A5
E|----------------|----------------|----------------|----------------|
B|----------------|----------------|----------------|----------------|
G|----------------|----------------|----------------|----------------|
D|7-7-------------|----------------|7---------------|----------------|
A|7-7-------------|----------------|7---------------|----------------|
E|5-5-------------|----------------|5---------------|----------------|
  Breaking the law, breaking the law
                                    Breaking the law, breaking the law


Next bit involves B5 C5 and D5, listen to song for rhythm

  B5  C5  D5
E|----------------|
B|----------------|
G|4---5---7-------|
D|4---5---7-------|
A|2---4---5-------|
E|----------------|

  D5
E|----------------|----------------|----------------|----------------|
B|----------------|----------------|----------------|----------------|
G|7---------------|----------------|----------------|----------------|
D|7---------------|----------------|----------------|----------------|
A|5---------------|----------------|----------------|----------------|
E|----------------|----------------|----------------|----------------|
  You don't know what it's like

E|----------------|----------------|----------------|----------------|
B|----------------|----------------|----------------|----------------|
G|----------------|----------------|----------------|----------------|
D|----------------|----------------|----------------|----------------|
A|----------------|----------------|----------------|----------------|
E|----------------|----------------|----------------|----------------|

  A5                                F5
E|----------------|----------------|----------------|----------------|
B|----------------|----------------|----------------|----------------|
G|----------------|----------------|----------------|----------------| x4
D|----------------|----------------|----------------|----------------|
A|0---2---3---0-2-|--3---0-2---3---|--------0-------|--0-----3---2---|
E|----------------|----------------|1---3-------1-3-|------1---------|

  A5                                F5
E|----------------|----------------|----------------|----------------|
B|----------------|----------------|----------------|----------------|
G|----------------|----------------|----------------|----------------| x2
D|----------------|----------------|----------------|----------------|
A|0---2---3---0-2-|--3---0-2---3---|--------0-------|--0-----3---2---|
E|----------------|----------------|1---3-------1-3-|------1---------|
  Breaking the law, breaking the law
                                    Breaking the law, breaking the law
  Breaking the law, breaking the law
                                    Breaking the law, breaking the law

E|----------------|----------------|----------------|----------------|
B|----------------|----------------|----------------|----------------|
G|E---------------|E---------------|E---------------|E---------------|
D|----------------|----------------|----------------|----------------|
A|----------------|----------------|----------------|----------------|
E|----------------|----------------|----------------|----------------|
 |                                                                   | x2
 |A5                                F5                               |
E|----------------|----------------|----------------|----------------|
B|----------------|----------------|----------------|----------------|
G|----------------|----------------|----------------|----------------|
D|----------------|----------------|----------------|----------------|
A|0---2---3---0-2-|--3---0-2---3---|--------0-------|--0-----3---2---|
E|----------------|----------------|1---3-------1-3-|------1---------|
  Breaking the law, breaking the law
                                    Breaking the law, breaking the law
  Breaking the law, breaking the law
                                    Breaking the law, breaking the law

  A5
E|----------------|----------------|----------------|----------------|
B|----------------|----------------|----------------|----------------|
G|----------------|----------------|----------------|----------------|
D|7---------------|----------------|----------------|----------------|
A|7---------------|----------------|----------------|----------------|
E|5---------------|----------------|----------------|----------------|
  ?

Crazy

------------------------------------------------------------------------------
This transcription was done by Alex Kruczkowski ([email protected]).

You can find the web's most comprehensive archive of Therapy? tablature
at .
------------------------------------------------------------------------------


Текст, аккорды и табулатура для песни "Breaking The Law", исполняет "Therapy".
Используемые в песне аккорды можно найти в разделе Как брать аккорды. Аккорды для шестиструнной гитары. Другие песни можно найти на нашем сайте, воспользовавшись алфавитным указателем вверху страницы.


 
Ошибка в тексте? Выделите ошибку и нажмите Ctrl+Enter