Artist: The Music
Track: Turn Out The Light
Album: The Music
Tabbed by: Dave The Bookie ([email protected])

Standard Tuning (high to low): E B G D A E

Legend:

/ - slide up
 - slide down
p – pull up
h – hammer on
b – bend to note
gb – gradual bend
(4) – optional note

Main Riff

|--------------------------------|
|------4---------0-----0---------|
|------------------(4)---(4)-----|
|----6---------2-----------------|
|--4---------0-------------------|
|--------------------------------|

These are all of the fills Adam uses at the end of the riff shown above during the verses.
He uses a delay or echo pedal to create the unique sound.

#1         #2        #3          #4

|---------|------0--|------0h2--|------0---0-----7---------|
|--0h2p0--|--0h2----|--0h2------|--0h2---7---8b9---9b8-----|
|---------|---------|-----------|----------------------9---|
|---------|---------|-----------|--------------------------|
|---------|---------|-----------|--------------------------|
|---------|---------|-----------|--------------------------|

#5

|------0-2-0h2-0-2—4h5/7---|
|--0h2---------------------|
|--------------------------|
|--------------------------|
|--------------------------|
|--------------------------|

Gtr.1 (2:02)

|-------------------------------------------------|
|------4-----------------------4------------------|
|------------4---4--------------------4---4-------|
|----6-----2-2-2-2-2-2-------6------2-2-2-2-2-2---|
|--4-------0-0-0-0-0-0-----4--------0-0-0-0-0-0---|
|-------------------------------------------------|

Little guitar bit (2:17)

|------------------------------------------------|
|------5---4-------------------------------------|
|-------------6-----4--4--------1---2---2h4--4---|
|-------6---6---6--------6-----------------------|
|--4-4---4--------4--4---------------------------|
|----------------------------0-0---0---0---------|

(4:15)

|--------------------------------------|
|------4-------------------------------|
|--------------4-4-4-4-4-4-4-4-4-4-4---|
|----6-------2-2-2-2-2-2-2-2-2-2-2-2---|
|--4-------0-0-0-0-0-0-0-0-0-0-0-0-0---|
|--------------------------------------|

Up the tempo (4:36)

|----------------------------------|
|----------------------------------|
|--4-4-4-4-4-4-4-4-4-4-4-4-4-4-4---|
|--6-6-6-2-2-2-2-2-2-2-2-2-2-2-2---|
|--4-4-4-0-0-0-0-0-0-0-0-0-0-0-0---|
|----------------------------------|

Gtr.2 (4:52)

|--------------|
|--9-10-9-12---|
|--9--9-9--9---|    Fiddle about with these notes 
|--9--9-9--9---|    until they sound right.
|--0--0-0--0---|
|--------------|

Outro

Gtr.2

|-----------------------|-----------------|
|--10-9------12-9-------|--10p9-----------|
|-------9---------9-----|--------9-11gb---|
|---------9---------9---|-----------------|
|-----------------------|-----------------|
|-----------------------|-----------------|


Текст, аккорды и табулатура для песни "Turn Out The Light", исполняет "The Music".
Используемые в песне аккорды можно найти в разделе Как брать аккорды. Аккорды для шестиструнной гитары. Другие песни можно найти на нашем сайте, воспользовавшись алфавитным указателем вверху страницы.


 
Ошибка в тексте? Выделите ошибку и нажмите Ctrl+Enter