Song is in Drop D Tuning (eBGDAD).


INTRO

 (Guitar 1)
e|------------10--------------10--------------10--------------10----
B|-----8--9-8----------8--9-8----------8—9-8-----------8--9-8-------
G|-10--------------10--------------10--------------15---------------
D|------------------------------------------------------------------
A|------------------------------------------------------------------
D|------------------------------------------------------------------
 (Bass)
e|------------------------------------------------------------------
B|------------------------------------------------------------------
G|------------------------------------------------------------------
D|------------------------------------------------------------------
A|------------------------------------------------------------------
D|-5-5-5-5-5-5-5-5-5-5-5-5-5-5-5-5--3-3-3-3-3-3-3-3-3-3-3-3-3-3-3-3-


 (Guitar 1)
e|------------10--------------10--------------10--------------10----
B|-----8--9-8----------8--9-8----------8--9-8----------8--9-8-------
G|-10--------------10--------------10--------------15---------------
D|------------------------------------------------------------------
A|------------------------------------------------------------------
D|------------------------------------------------------------------
 (Bass)
e|------------------------------------------------------------------
B|------------------------------------------------------------------
G|------------------------------------------------------------------
D|------------------------------------------------------------------
A|------------------------------------------------------------------
D|-1-1-1-1-1-1-1-1-1-1-1-1-1-1-1-1--3-3-3-3-3-3-3-3-3-3-3-3-3-3-3-3-



VERSE 1

 (Guitar 1)
e|------------10--------------10--------------10--------------10----
B|-----8--9-8----------8--9-8----------9--8-9----------8--9-8-------
G|-10--------------10--------------10--------------15---------------
D|------------------------------------------------------------------
A|------------------------------------------------------------------
D|------------------------------------------------------------------
 (Bass)
e|------------------------------------------------------------------
B|------------------------------------------------------------------
G|------------------------------------------------------------------
D|-5-5-5-5-5-5-5-5-5-5-5-5-5-5-5-5--3-3-3-3-3-3-3-3-3-3-3-3-3-3-3-3-
A|-5-5-5-5-5-5-5-5-5-5-5-5-5-5-5-5--3-3-3-3-3-3-3-3-3-3-3-3-3-3-3-3-
D|-5-5-5-5-5-5-5-5-5-5-5-5-5-5-5-5--3-3-3-3-3-3-3-3-3-3-3-3-3-3-3-3-
         What’s it like up there            Do you worry any more


 (Guitar 1)
e|------------10--------------10--------------10--------------10----
B|-----8--9-8----------8--9-8----------8--9-8----------8--9-8-------
G|-10--------------10--------------10--------------15---------------
D|------------------------------------------------------------------
A|------------------------------------------------------------------
D|------------------------------------------------------------------
 (Bass)
e|------------------------------------------------------------------
B|------------------------------------------------------------------
G|------------------------------------------------------------------
D|-1-1-1-1-1-1-1-1-1-1-1-1-1-1-1-1--3-3-3-3-3-3-3-3-3-3-3-3-3-3-3-3-
A|-1-1-1-1-1-1-1-1-1-1-1-1-1-1-1-1--3-3-3-3-3-3-3-3-3-3-3-3-3-3-3-3-
D|-1-1-1-1-1-1-1-1-1-1-1-1-1-1-1-1--3-3-3-3-3-3-3-3-3-3-3-3-3-3-3-3-
         How do you feel up there                 So much left to say...


CHORUS

 (Guitar 2)
e|------------------------------------------------------------------
B|------------------------------------------------------------------
G|------------------------------------------------------------------
D|-5-5-5-5-5-5-5-5-5-5-5-5-5-5-5-5--3-3-3-3-3-3-3-3-3-3-3-3-3-3-3-3-
A|-5-5-5-5-5-5-5-5-5-5-5-5-5-5-5-5--3-3-3-3-3-3-3-3-3-3-3-3-3-3-3-3-
D|-5-5-5-5-5-5-5-5-5-5-5-5-5-5-5-5--3-3-3-3-3-3-3-3-3-3-3-3-3-3-3-3-
 (Bass)
e|------------------------------------------------------------------
G|------------------------------------------------------------------
B|------------------------------------------------------------------
D|------------------------------------------------------------------
A|------------------------------------------------------------------
D|-5-5-5-5-5-5-5-5-5-5-5-5-5-5-5-5--3-3-3-3-3-3-3-3-3-3-3-3-3-3-3-3-


 (Guitar 2)
e|------------------------------------------------------------------
B|------------------------------------------------------------------
G|------------------------------------------------------------------
D|-1-1-1-1-1-1-1-1-1-1-1-1-1-1-1-1--3-3-3-3-3-3-3-3-3-3-3-3-3-3-3-3-
A|-1-1-1-1-1-1-1-1-1-1-1-1-1-1-1-1--3-3-3-3-3-3-3-3-3-3-3-3-3-3-3-3-
D|-1-1-1-1-1-1-1-1-1-1-1-1-1-1-1-1--3-3-3-3-3-3-3-3-3-3-3-3-3-3-3-3-
 (Bass)
e|------------------------------------------------------------------
G|------------------------------------------------------------------
B|------------------------------------------------------------------
D|------------------------------------------------------------------
A|------------------------------------------------------------------
D|-1-1-1-1-1-1-1-1-1-1-1-1-1-1-1-1--3-3-3-3-3-3-3-3-3-3-3-3-3-3-3-3-


BRIDGE 1

 (Guitar 1)
e|------------------------------------------------------------------
B|------------------------------------------------------------------
G|------------------------------------------------------------------
D|------------------------------------------------------------------
A|-10101010101010101010101010101010-8-8-8-8-8-8-8-8-8-8-8-8-8-8-8-8-
D|------------------------------------------------------------------
There’s some weird effect here, but these are the notes being played
Playing it aloud with everything else this seems good
 (Guitar 2)
e|------------------------------------------------------------------
B|------------------------------------------------------------------
G|------------------------------------------------------------------
D|-5-5-5-5-5-5-5-5-5-5-5-5-5-5-5-5--3-3-3-3-3-3-3-3-3-3-3-3-3-3-3-3-
A|-5-5-5-5-5-5-5-5-5-5-5-5-5-5-5-5--3-3-3-3-3-3-3-3-3-3-3-3-3-3-3-3-
D|-5-5-5-5-5-5-5-5-5-5-5-5-5-5-5-5--3-3-3-3-3-3-3-3-3-3-3-3-3-3-3-3-
 (Bass)
e|------------------------------------------------------------------
G|------------------------------------------------------------------
B|------------------------------------------------------------------
D|------------------------------------------------------------------
A|------------------------------------------------------------------
D|-5-5-5-5-5-5-5-5-5-5-5-5-5-5-5-5--3-3-3-3-3-3-3-3-3-3-3-3-3-3-3-3-


 (Guitar 1)
e|------------------------------------------------------------------
B|------------------------------------------------------------------
G|------------------------------------------------------------------
D|------------------------------------------------------------------
A|-10101010101010101010101010101010-8-8-8-8-8-8-8-8-8-8-8-8-8-8-8-8-
D|------------------------------------------------------------------
 (Guitar 2)
e|------------------------------------------------------------------
B|------------------------------------------------------------------
G|------------------------------------------------------------------
D|-1-1-1-1-1-1-1-1-1-1-1-1-1-1-1-1--3-3-3-3-3-3-3-3-3-3-3-3-3-3-3-3-
A|-1-1-1-1-1-1-1-1-1-1-1-1-1-1-1-1--3-3-3-3-3-3-3-3-3-3-3-3-3-3-3-3-
D|-1-1-1-1-1-1-1-1-1-1-1-1-1-1-1-1--3-3-3-3-3-3-3-3-3-3-3-3-3-3-3-3-
 (Bass)
e|------------------------------------------------------------------
G|------------------------------------------------------------------
B|------------------------------------------------------------------
D|------------------------------------------------------------------
A|------------------------------------------------------------------
D|-1-1-1-1-1-1-1-1-1-1-1-1-1-1-1-1--3-3-3-3-3-3-3-3-3-3-3-3-3-3-3-3-


VERSE 2A

 (Guitar 2)
e|------------------------------------------------------------------
B|------------------------------------------------------------------
G|------------------------------------------------------------------
D|-5-5-5-5-5-5-5-5-5-5-5-5-5-5-5-5--3-3-3-3-3-3-3-3-3-3-3-3-3-3-3-3-
A|-5-5-5-5-5-5-5-5-5-5-5-5-5-5-5-5--3-3-3-3-3-3-3-3-3-3-3-3-3-3-3-3-
D|-5-5-5-5-5-5-5-5-5-5-5-5-5-5-5-5--3-3-3-3-3-3-3-3-3-3-3-3-3-3-3-3-
 (Bass)
e|------------------------------------------------------------------
G|------------------------------------------------------------------
B|------------------------------------------------------------------
D|------------------------------------------------------------------
A|------------------------------------------------------------------
D|-5-5-5-5-5-5-5-5-5-5-5-5-5-5-5-5--3-3-3-3-3-3-3-3-3-3-3-3-3-3-3-3-


 (Guitar 2)
e|------------------------------------------------------------------
B|------------------------------------------------------------------
G|------------------------------------------------------------------
D|-1-1-1-1-1-1-1-1-1-1-1-1-1-1-1-1--3-3-3-3-3-3-3-3-3-3-3-3-3-3-3-3-
A|-1-1-1-1-1-1-1-1-1-1-1-1-1-1-1-1--3-3-3-3-3-3-3-3-3-3-3-3-3-3-3-3-
D|-1-1-1-1-1-1-1-1-1-1-1-1-1-1-1-1--3-3-3-3-3-3-3-3-3-3-3-3-3-3-3-3-
 (Bass)
e|------------------------------------------------------------------
G|------------------------------------------------------------------
B|------------------------------------------------------------------
D|------------------------------------------------------------------
A|------------------------------------------------------------------
D|-1-1-1-1-1-1-1-1-1-1-1-1-1-1-1-1--3-3-3-3-3-3-3-3-3-3-3-3-3-3-3-3-


VERSE 2B

 (Guitar 1)
e|------------------------------------------------------------------
B|------------------------------------------------------------------
G|------------------------------------------------------------------
D|-----------------------8--------------------------------8---------
A|-8-1010--8-10--10--10----10--8----8-1010--8-10--10--10----10--8---
D|------------------------------------------------------------------
 (Guitar 2)
e|------------------------------------------------------------------
B|------------------------------------------------------------------
G|------------------------------------------------------------------
D|-5-5-5-5-5-5-5-5-5-5-5-5-5-5-5-5--3-3-3-3-3-3-3-3-3-3-3-3-3-3-3-3-
A|-5-5-5-5-5-5-5-5-5-5-5-5-5-5-5-5--3-3-3-3-3-3-3-3-3-3-3-3-3-3-3-3-
D|-5-5-5-5-5-5-5-5-5-5-5-5-5-5-5-5--3-3-3-3-3-3-3-3-3-3-3-3-3-3-3-3-
 (Bass)
e|------------------------------------------------------------------
G|------------------------------------------------------------------
B|------------------------------------------------------------------
D|------------------------------------------------------------------
A|------------------------------------------------------------------
D|-5-5-5-5-5-5-5-5-5-5-5-5-5-5-5-5--3-3-3-3-3-3-3-3-3-3-3-3-3-3-3-3-


 (Guitar 1)
e|------------------------------------------------------------------
B|------------------------------------------------------------------
G|------------------------------------------------------------------
D|-----------------------8--------------------------------8---------
A|-8-1010--8-10--10--10----10--8----8-1010--8-10--10--10----10--8---
D|------------------------------------------------------------------
 (Guitar 2)
e|------------------------------------------------------------------
B|------------------------------------------------------------------
G|------------------------------------------------------------------
D|-1-1-1-1-1-1-1-1-1-1-1-1-1-1-1-1--3-3-3-3-3-3-3-3-3-3-3-3-3-3-3-3-
A|-1-1-1-1-1-1-1-1-1-1-1-1-1-1-1-1--3-3-3-3-3-3-3-3-3-3-3-3-3-3-3-3-
D|-1-1-1-1-1-1-1-1-1-1-1-1-1-1-1-1--3-3-3-3-3-3-3-3-3-3-3-3-3-3-3-3-
 (Bass)
e|------------------------------------------------------------------
G|------------------------------------------------------------------
B|------------------------------------------------------------------
D|------------------------------------------------------------------
A|------------------------------------------------------------------
D|-1-1-1-1-1-1-1-1-1-1-1-1-1-1-1-1--3-3-3-3-3-3-3-3-3-3-3-3-3-3-3-3-



BRIDGE 2

 (Guitar 1)
e|------------------------------------------------------------------
B|------------------------------------------------------------------
G|------------------------------------------------------------------
D|------------------------------------------------------------------
A|------------------------------------------------------------------
D|------------------------------------------------------------------
 (Bass)
e|------------------------------------------------------------------
B|------------------------------------------------------------------
G|------------------------------------------------------------------
D|-------------8---------------8----------------8---------------8---
A|-10--8---10------10--8---10-------10--8---10------10--8---10------
D|------------------------------------------------------------------


 (Guitar 1)
e|------------------------------------------------------------------
B|------------------------------------------------------------------
G|------------------------------------------------------------------
D|------------------------------------------------------------------
A|------------------------------------------------------------------
D|------------------------------------------------------------------
 (Bass)
e|------------------------------------------------------------------
B|------------------------------------------------------------------
G|------------------------------------------------------------------
D|-------------8---------------8----------------8---------------8---
A|-10--8---10------10--8---10-------10--8---10------10--8---10------
D|------------------------------------------------------------------


 (Guitar 1 - Fade in....)
e|------------10--------------10--------------10--------------10----
B|-----8--9-8----------8--9-8----------8—9-8-----------8--9-8-------
G|-10--------------10--------------10--------------15---------------
D|------------------------------------------------------------------
A|------------------------------------------------------------------
D|------------------------------------------------------------------
 (Bass)
e|------------------------------------------------------------------
B|------------------------------------------------------------------
G|------------------------------------------------------------------
D|-------------8---------------8----------------8---------------8---
A|-10--8---10------10--8---10-------10--8---10------10--8---10------
D|------------------------------------------------------------------


 (Guitar 1 - Full volume)
e|------------10--------------10--------------10--------------10----
B|-----8--9-8----------8--9-8----------8—9-8-----------8--9-8-------
G|-10--------------10--------------10--------------15---------------
D|------------------------------------------------------------------
A|------------------------------------------------------------------
D|------------------------------------------------------------------
 (Bass)
e|------------------------------------------------------------------
B|------------------------------------------------------------------
G|------------------------------------------------------------------
D|-------------8---------------8----------------8---------------8---
A|-10--8---10------10--8---10-------10--8---10------10--8---10------
D|------------------------------------------------------------------


CHORUS 2

 (Guitar 2)
e|------------------------------------------------------------------
B|------------------------------------------------------------------
G|------------------------------------------------------------------
D|-5-5-5-5-5-5-5-5-5-5-5-5-5-5-5-5--3-3-3-3-3-3-3-3-3-3-3-3-3-3-3-3-
A|-5-5-5-5-5-5-5-5-5-5-5-5-5-5-5-5--3-3-3-3-3-3-3-3-3-3-3-3-3-3-3-3-
D|-5-5-5-5-5-5-5-5-5-5-5-5-5-5-5-5--3-3-3-3-3-3-3-3-3-3-3-3-3-3-3-3-
 (Bass)
e|------------------------------------------------------------------
G|------------------------------------------------------------------
B|------------------------------------------------------------------
D|------------------------------------------------------------------
A|------------------------------------------------------------------
D|-5-5-5-5-5-5-5-5-5-5-5-5-5-5-5-5--3-3-3-3-3-3-3-3-3-3-3-3-3-3-3-3-


 (Guitar 2)
e|------------------------------------------------------------------
B|------------------------------------------------------------------
G|------------------------------------------------------------------
D|-1-1-1-1-1-1-1-1-1-1-1-1-1-1-1-1--3-3-3-3-3-3-3-3-3-3-3-3-3-3-3-3-
A|-1-1-1-1-1-1-1-1-1-1-1-1-1-1-1-1--3-3-3-3-3-3-3-3-3-3-3-3-3-3-3-3-
D|-1-1-1-1-1-1-1-1-1-1-1-1-1-1-1-1--3-3-3-3-3-3-3-3-3-3-3-3-3-3-3-3-
 (Bass)
e|------------------------------------------------------------------
G|------------------------------------------------------------------
B|------------------------------------------------------------------
D|------------------------------------------------------------------
A|------------------------------------------------------------------
D|-1-1-1-1-1-1-1-1-1-1-1-1-1-1-1-1--3-3-3-3-3-3-3-3-3-3-3-3-3-3-3-3-


CHORUS 3

 (Guitar 1)
e|------------------------------------------------------------------
B|------------------------------------------------------------------
G|------------------------------------------------------------------
D|-----------------------8--------------------------------8---------
A|-8-1010--8-10--10--10----10--8----8-1010--8-10--10--10----10--8---
D|------------------------------------------------------------------
 (Guitar 2)
e|------------------------------------------------------------------
B|------------------------------------------------------------------
G|------------------------------------------------------------------
D|-5-5-5-5-5-5-5-5-5-5-5-5-5-5-5-5--3-3-3-3-3-3-3-3-3-3-3-3-3-3-3-3-
A|-5-5-5-5-5-5-5-5-5-5-5-5-5-5-5-5--3-3-3-3-3-3-3-3-3-3-3-3-3-3-3-3-
D|-5-5-5-5-5-5-5-5-5-5-5-5-5-5-5-5--3-3-3-3-3-3-3-3-3-3-3-3-3-3-3-3-
 (Bass)
e|------------------------------------------------------------------
G|------------------------------------------------------------------
B|------------------------------------------------------------------
D|------------------------------------------------------------------
A|------------------------------------------------------------------
D|-5-5-5-5-5-5-5-5-5-5-5-5-5-5-5-5--3-3-3-3-3-3-3-3-3-3-3-3-3-3-3-3-


 (Guitar 1)
e|------------------------------------------------------------------
B|------------------------------------------------------------------
G|------------------------------------------------------------------
D|-----------------------8--------------------------------8---------
A|-8-1010--8-10--10--10----10--8----8-1010--8-10--10--10----10--8---
D|------------------------------------------------------------------
 (Guitar 2)
e|------------------------------------------------------------------
B|------------------------------------------------------------------
G|------------------------------------------------------------------
D|-1-1-1-1-1-1-1-1-1-1-1-1-1-1-1-1--3-3-3-3-3-3-3-3-3-3-3-3-3-3-3-3-
A|-1-1-1-1-1-1-1-1-1-1-1-1-1-1-1-1--3-3-3-3-3-3-3-3-3-3-3-3-3-3-3-3-
D|-1-1-1-1-1-1-1-1-1-1-1-1-1-1-1-1--3-3-3-3-3-3-3-3-3-3-3-3-3-3-3-3-
 (Bass)
e|------------------------------------------------------------------
G|------------------------------------------------------------------
B|------------------------------------------------------------------
D|------------------------------------------------------------------
A|------------------------------------------------------------------
D|-1-1-1-1-1-1-1-1-1-1-1-1-1-1-1-1--3-3-3-3-3-3-3-3-3-3-3-3-3-3-3-3-


BRIDGE 3

 (Guitar 1)
e|------------------------------------------------------------------
B|------------------------------------------------------------------
G|------------------------------------------------------------------
D|-----------------------8--------------------------------8---------
A|-8-1010--8-10--10--10----10--8----8-1010--8-10--10--10----10--8---
D|------------------------------------------------------------------
 (Bass)
e|------------------------------------------------------------------
G|------------------------------------------------------------------
B|------------------------------------------------------------------
D|------------------------------------------------------------------
A|------------------------------------------------------------------
D|-5-5-5-5-5-5-5-5-5-5-5-5-5-5-5-5--3-3-3-3-3-3-3-3-3-3-3-3-3-3-3-3-

 (Guitar 1)
e|------------------------------------------------------------------
B|------------------------------------------------------------------
G|------------------------------------------------------------------
D|-----------------------8--------------------------------8---------
A|-8-1010--8-10--10--10----10--8----8-1010--8-10--10--10----10--8---
D|------------------------------------------------------------------
 (Bass)
e|------------------------------------------------------------------
G|------------------------------------------------------------------
B|------------------------------------------------------------------
D|------------------------------------------------------------------
A|------------------------------------------------------------------
D|-1-1-1-1-1-1-1-1-1-1-1-1-1-1-1-1--3-3-3-3-3-3-3-3-3-3-3-3-3-3-3-3-


OUTRO - Repeat until Fade

 (Guitar 1)
e|------------------------------------------------------------------
B|------------------------------------------------------------------
G|------------------------------------------------------------------
D|------------------------------------------------------------------
A|-8p10--10--8--5--8p10--10--8--5---8p10--10--8------8p10--8--10----
D|-----------------------------------------------10---------------10


e|------------------------------------------------------------------
B|------------------------------------------------------------------
G|------------------------------------------------------------------
D|------------------------------------------------------------------
A|-8p10--10--8-----8p10--10--8------8p10--10--8------8p10--8--10----
D|--------------8---------------8----------------10---------------10




This is my first proper tab! Let me know what you think!
Questions/Comments? Email me [email protected]


Текст, аккорды и табулатура для песни "Getaway", исполняет "The Music".
Используемые в песне аккорды можно найти в разделе Как брать аккорды. Аккорды для шестиструнной гитары. Другие песни можно найти на нашем сайте, воспользовавшись алфавитным указателем вверху страницы.


 
Ошибка в тексте? Выделите ошибку и нажмите Ctrl+Enter