-THE LIVING END-
                       Trapped 
                  Tabbed by Mick Fryar
                  [email protected]



~=bend or vibrado
s=slide
x=dead note-dont play string



Verse: *all up strokes*

  G        Bm       C        D
e-2-2-2-2--2-2-2-2--0-0-0-0--2-2-2-2--|
b-2-2-2-2--3-3-3-3--2-2-2-2--3-3-3-3--|
g-0-0-0-0--3-3-3-3--x-x-x-x--2-2-2-2--| repeat as needed
d-x-x-x-x--x-x-x-x--x-x-x-x--x-x-x-x--|
a-x-x-x-x--x-x-x-x--x-x-x-x-----------|
e-x-x-x-x-----------------------------|

  E        D        Bm       C(repeat this C progression)
e-0-0-0-0--2-2-2-2--2-2-2-2---------------------|
b-0-0-0-0--3-3-3-3--3-3-3-3---------------------|
g----------2-2-2-2--2-2-2-2----5----------------|
d--------------------------------5-----3--5-5-3-|
a----------------------------3-----3-5----------|
e-----------------------------------------------|

  C  D  C  D
e-0--2--0--2--|
b-2--3--1--3--|
g-0--2--0--2--|
d-2--0--2--0--|
a-3-----3-----|
e-------------|



Chorus:

  G          Bm         C          Eb          F
e-----3-3-3------2-2-2------------------------------|
b-----3-3-3------3-3-3------5-5-5-------------------|
g-----0-0-0--4-4-4-4-4--5-5-5-5-5--8-8-8-x-x-x-10-10|
d-0-0-0-0-0--4-4-4-4-4--5-5-5-5-5--8-8-8-x-x-x-10-10|(x2)
a-3-2-2-2-2--2-2-2-2-2--3-3-3-3-3--6-6-6-x-x-x-8--8-|
e-3-3-3-3-3-----------------------------------------|



Verse

Chorus

Bridge/Solo: 
  F                          G#
e-1-1~--1-1~--1-1~--1-1~--3--4-4~--4-4~--4-4~--4-4~--|
b-1-1~--1-1~--1-1~--1-1~--3--4-4~--4-4~--4-4~--4-4~--|
g----------------------------------------------------|
d----------------------------------------------------|
a----------------------------------------------------|
e----------------------------------------------------|
  B
e-7-7~--7-7~--7-7~--7-7~--7-7~--7-7~--7-7~--7-7~-7-5s-|
b-7-7~--7-7~--7-7~--7-7~--7-7~--7-7~--7-7~--7-7~------|
g-----------------------------------------------------|
d-----------------------------------------------------|
a-----------------------------------------------------|
e-----------------------------------------------------|


Verse (only G , Bm , C , D part of verse)
      played at a faster tempo.



then you play the verse again but like this:

  G                   Bm                
e---3---3---3---3---3---2---2---2---2---2-|
b-3---3---3---3---3---3---3---3---3---3---|
g-----------------------------------------|
d-----------------------------------------|
a-----------------------------------------|
e-----------------------------------------|

  C                   Eb          F
e---0---0---0---0---0-------------------|
b-1---1---1---1---1---------------------|
g----------------------8-8-8-x-x-10-10--|
d----------------------8-8-8-x-x-10-10--|
a----------------------6-6-6-x-x-8--8---|(x2)
e---------------------------------------|


Outro:

  B A  C# C E Eb G  F# G  F#  G  F#
e------------------------------------|
b------------------------------------|
g-4-2--6-5--9-8--12-11-12-11-12-11---|
d-4-2--6-5--9-8--12-11-12-11-12-11---|
a-2-0--4-3--7-6--10-9--10-9--10-9----|
e------------------------------------|

  G
e-2-2-2-------3-3--|
b-2-2-2-------3-3--|
g-0-0-0-------0-0--|
d-0-0-0--(x3)-0-0--|
a-2-2-2-------2-2--|
e-3-3-3-------3-3--|


Текст, аккорды и табулатура для песни "Trapped", исполняет "The Living End".
Используемые в песне аккорды можно найти в разделе Как брать аккорды. Аккорды для шестиструнной гитары. Другие песни можно найти на нашем сайте, воспользовавшись алфавитным указателем вверху страницы.


 
Ошибка в тексте? Выделите ошибку и нажмите Ctrl+Enter