Trace Of Doubt  -THE LIVING END -Tabbed by Michael Fryar
                                    [email protected]


    A       A#      C       C#      D#      Em      F       G       G#
  x0--xx  x---xx  x----x  x---xx  x---oo  o--ooo  ---xxx  ---xxx  ------
  ||22||  |133||  |3555|  |466||  |688||  |22|||  133|||  355|||  466544

p=pull-off
s=slide
~=bend
h=hammer-on

Intro:
e-------------------------------------------|
b-------------------------------------------|
g---h7-5-7~---h7-5-7~---h7-5-7~-7~~-5-------|(x2)
d-5---------5---------5---------------7-5---|
a-------------------------------------------|
e-------------------------------------------|
then,
 G - C - Bb , b-7-5-3-5-3-as many times as needed

Verse: A# - F - G(x4)
       A# - C - D# -(G-C-Bb(x4))
       A - C - D# - Bb - F - G

Chorus: C - Em - F - G# (x4)
Intro
Verse
Chorus

Bridge: C# - D# - F - G# (x4)
Solo : *not entirly sure about it*

e---------------------3---4---6---8---9-|
b-4--4~----4~-4~----4---5---6---7---8---|
g-4--4~----4~-4~-0--4---5---6---7---8---|
d---------------------------------------|
a---------------------------------------|
e---------------------------------------|
 not sure about this next little section here: (or its something in that pentatonic scale)
e-9~-9~-9-7-----------------7-9-|
b-----------9-7---------7-9-----|
g---------------9-9p7-9---------|
d-------------------------------|
a-------------------------------|
e-------------------------------|

e-------------------11s---|
b---7---8---9----10-------|
g-7---8---9---10----------|
d-------------------------|
a-------------------------|
e-------------------------|
Verse

Chorus

Intro

Tabbed by Michael Fryar,  [email protected]


Текст, аккорды и табулатура для песни "Trace Of Doubt", исполняет "The Living End".
Используемые в песне аккорды можно найти в разделе Как брать аккорды. Аккорды для шестиструнной гитары. Другие песни можно найти на нашем сайте, воспользовавшись алфавитным указателем вверху страницы.


 
Ошибка в тексте? Выделите ошибку и нажмите Ctrl+Enter