-THE LIVING END-
                             Read About It

                       Transcribed By Michael Fryar
                         [email protected]
                                 and
                  Matt [email protected]

s=slide
^=bend
p=pull off
h=hammer on



Verse:

e--5-5--5--5--5--5--5-5-5----------|
b--5-5--5--5--5--5--5-5-5----------|
g----------------------------------|
d----------------------------------|(repeat as needed)
a----------------------------------|
e----------------------------------|

   C              E                                       
e---------------------------|
b---------------------------|
g-5-5-5-5-5-5-5-------------|
d-5-5-5-5-5-5-5-2-2-2-2-2-2-|
a-3-3-3-3-3-3-3-2-2-2-2-2-2-|
e---------------0-0-0-0-0-0-|


                                  B       E      B     E
e-5-5--5--5--5--5--5-5-5--(x2)----------------------------|
b-5-5--5--5--5--5--5-5-5----------------------------------|
g------------------------------4-4-4-4---------4-4-4-4----|
d------------------------------4-4-4-4-2-2-2-2-4-4-4-4-2--|
a------------------------------2-2-2-2-2-2-2-2-2-2-2-2-2let ring
e--------------------------------------0-0-0-0---------0--|



Chorus:

    F                      D       A
e--------------------------2-----------------------|
b--------------------------3-----------------------|
g--------------------------2-2--2--2--2--2-2-2-2---|
d-3-3-3-3-3-3-3-3-3-3-3-3--0-2--2--2--2--2-2-2-2---|(x3)
a-3-3-3-3-3-3-3-3-3-3-3-3----0--0--0--0--0-0-0-0---|
e-1-1-1-1-1-1-1-1-1-1-1-1--------------------------|

   A         C       E  D  C  B  A
e------------------------------------|
b------------------------------------|
g-2-2---2--5-5---5---9--5--5--4--2---|
d-2-2--2---5-5--5----9--5--5--4--2---|
a-0-0-0----3-3-3-----7--5--3--2--0---|
e------------------------------------|

Verse

Chorus

Pre Solo:
    
    Am                A           Am
e-------5---------------5-------------5---|
b------5---------------5-------------5----|
g-----5---------------6-------------5-----|
d----7---------------7-------------7------|
a---7---------------7-------------7-------|
e--5---------------5-------------5--------|


Solo:

   C
e---------------------------------7---5---3---5---3s|
b-----------------------------------5---5---5---5---|
g-5-5-------0-2b----2----4h5p4----------------------|
d-5-5-----2-----------------------------------------|
a-3-3-0---------------------------------------------|
e---------------------------------------------------|

e--------------3-|
b--3h5-5p3-0h3---|
g----------------|
d----------------|
a----------------|
e----------------|

                                      E
e----------------3h5--7h8p7----------------------|
b------3-5---------------------------------------|
g--2s4--------0---------------9----9-9----9----9-|
d-----------------------------9----9-9----9----9-|
a-----------------------------7----7-7----7----7-|
e------------------------------------------------|

                                             
e---------------------------------------|
b---------------------------------------|
g-----0-2-4p0----------------0-2-0------|
d-2-4---------4-2------0-2-4-------4-0--|
a---------------------------------------|
e---------------------------------------|


  E
e----------------------|
b----------------------|
g-9----9-9----9----9-9-|
d-9----9-9----9----9-9-|
a-7----7-7----7----7-7-|
e----------------------|

e--------------------------------------------------------|
b--------------------------------------------------------|
g-----0-2-4p0--------------0-2-0-------------------------|
d-2-4---------4-2----0-2-4-------4-0---------------------|
a--------------------------------------3-5-3-2-0---0-2---|
e------------------------------------------------3-----1^|
 / p a l m     m u t e d..............................


Chorus

(in the last section of the chorus above,
play it as needed but play a low E
power chord (5 strums) in between each time you 
lay that section.
JUST PLAY WHATS OBVIOUS DAMMIT!!! :)



Outro:

e-------------------------------------------------------|
b-------------------------------------------------------|
g-----0-2-4p0-------------0-2-0-------------------------|
d-2-4---------4-2---0-2-4-------4-0------------------2-2|
a------------------------------------3-5-3-2-0---0-2-2-2|
e----------------------------------------------3-----0-0|


Текст, аккорды и табулатура для песни "Read About It", исполняет "The Living End".
Используемые в песне аккорды можно найти в разделе Как брать аккорды. Аккорды для шестиструнной гитары. Другие песни можно найти на нашем сайте, воспользовавшись алфавитным указателем вверху страницы.


 
Ошибка в тексте? Выделите ошибку и нажмите Ctrl+Enter